Song name
# A B C D E F G H I J K L M N O P Q R S T U V W X Y Z

Pineapple Thief - Clapham chords

Highlighted       Show chord diagrams
                                          Artist - Pineapple Thief
                                         **************************
                                               Song - Clapham
                                              ****************
                                          Album - 10 Stories Down
                                         *************************
Intro
******                                     

 Em                               C
[--------------------------------|--------------------------------]
[------0-----0--------0-----0----|------1-----1--------1-----1----]
[----0-----0---0----0-----0---0--|----0-----0---0----0-----0---0--]
[--2-----2--------2-----2--------|--2-----2--------2-----2--------]
[--------------------------------|--------------------------------]
[--------------------------------|--------------------------------]

 Bm                               C
[--------------------------------|--------------------------------]
[------3-----3--------3-----3----|------1-----1--------1-----1----]
[----4-----4---4----4-----4---4--|----0-----0---0----0-----0---0--]
[--4-----4--------4-----4--------|--2-----2--------2-----2--------]
[--------------------------------|--------------------------------]
[--------------------------------|--------------------------------]

Verse 1
********
Pick the Chords
****************
Em
You're here
     C
With nowhere left to go
       Bm                 C
You,ve nowhere left to go

Em
You feel
     C
Your facing this alone
     Bm               C
Your facing this alone


Em C Bm C


Chorus
*******
Strum the Chords
*****************
                  Am
So I'm singin this for You
                     D
Yeah, I'm singin this for You
            Em
So You don't have to

                     Am
Is there something to live for
                         D
Tell me it's something to live for
             Em
Cause I don't have more


Verse 2
********
Pick the Chords
****************
Em
You feel 
        C
There's nothing left to say
        Bm                  C
There's nothing left to say

Em
You feel
    C
You slowly fade away
    Bm               C
You slowly fade away


Chorus
*******
Strum the Chords
*****************
                  Am
So I'm singin this for You
                     D
Yeah, I'm singin this for You
            Em
So You don't have to

                     Am
Is there something to live for
                         D
Tell me it's something to live for
             Em
Cause I don't have more


1 Strum
********
                   Am
Is there something to live for
                         D
Tell me it's something to live for
             Em
Cause I don't have more


Chorus
*******
Strum the Chords
*****************
                  Am
So I'm singin this for You
                     D
Yeah, I'm singin this for You
            Em
So You don't have to

                     Am
Is there something to live for
                           D
Tell me it's something to live for
             Em
Cause I don't have more


                    Am
This is something to live for
                                 D
Yeah, this is there something to live for
              Em
How could you need more


Pick the Chords
****************
Em
And now
        C
There,s everywhere to go
        Bm               C
There,s everywhere to go


Nice Easy Tune......    
Tap to rate this tab
# A B C D E F G H I J K L M N O P Q R S T U V W X Y Z