Song name
# A B C D E F G H I J K L M N O P Q R S T U V W X Y Z

Pineapple Thief - The Sorry State chords

Highlighted       Show chord diagrams
                                          Artist - Pineapple Thief
                                         **************************
                                           Song - The Sorry State 
                                          ************************
                                          Album - Tightly Unwound 
                                         *************************
                                           Tabbed By - Ayreon77
                                          **********************


INTRO
******
Bm   A       Bm
Aahh Aahh... Aahh....... 
Bm   A       Em     Bm  
Aahh Aahh... Aahh.......
Bm   A       Em     Bm  
Aahh Aahh... Aahh.......
Bm   Em      Bm
Aahh Aahh... Aahh.......

F# 
---------------------------------------------
VERSE 1
********
Bm        A              Bm
One false move into this sorry state
         A            Em     Bm
One poor soul in this lonely space
    A                 Em      Bm
One heart to shoulder all the blame
         A             Bm
A single cloud for you pouring rain

---------------------------------------------
CHORUS
*******
   F#    G              Bm      A
It turns cold, when the world unfolds
     F#        G        Bm        A
When one false move can turn your world
F# G    A
In side out

---------------------------------------------
VERSE 2
********
Bm     A              Em    Bm
Settle down into your sorry state
                A            Em       Bm
The world wonít move in your darkened place
             A                Em      Bm
I canít move here to shoulder all the blame
         A                Bm
A single cloud is rearing up again

---------------------------------------------
CHORUS
*******
---------------------------------------------
SOLO - Distorted
*****
[------s-s-----------------------|-7-7-|--------s-s---------------------|
[-----3\5/3-------3---3-3-3-3--3-|-7-7-|-------3\5/3---------3-3-3-3--3-|
[---4-------4---4-----4-4-4-4--4-|-----|--s--4-------4---4---4-4-4-4--4-|
[-4-----------2-------4-4-4-4--4-|-----|-2\4-----------2-----4-4-4-4--4-|
[--------------------------------|-----|--------------------------------|
[--------------------------------|-----|--------------------------------|


[--s-----h-----s---------s---------7-7---|--s-s----|
[-3\5-5-5-7-7-7\10--10-10\8-7--8-8-----7-|-5\7/5-3-|
[----------------------------------------|---------|
[----------------------------------------|---------|
[----------------------------------------|---------|
[----------------------------------------|---------|


[------s-s---------h-p-----2--2--2-|
[-----3\5/3-------2-3-0----3--3--3-|
[---4-------4---4-------2--4--4--4-|
[-4-----------2------------4--4--4-|
[----------------------------------|
[----------------------------------|

---------------------------------------------
CHORUS
*******
---------------------------------------------

F# G    C
In side out


ENJOY....
Tap to rate this tab
# A B C D E F G H I J K L M N O P Q R S T U V W X Y Z