Guitaretab - guitar tabs
Song name
# A B C D E F G H I J K L M N O P Q R S T U V W X Y Z

Pinhead Gunpowder - Life During Wartime tab

Pinhead Gunpowder Life during Wartime
From the album Goodbye Ellston Avenue
Tabbed by Liam
Email: guitar_rocker_47@hotmail.com
Tuning Standard

Many people think that this is Green day’s song but its not, its just because its 
other band, Pinhead Gunpowder and Billie is on vocals and rhythm guitar.
So have fun?

Intro
 |Both guitars
E|---------------------------------|---------------------------------|
B|---------------------------------|---------------------------------|
G|----------5-3--66666666-x-8-8-88-|----------5-3--66666666-x-8-8-88-|
D|-66666666-5-3--66666666-x-8-8-88-|-66666666-5-3--66666666-x-8-8-88-|
A|-66666666-3-1--44444444-x-6-6-66-|-66666666-3-1--44444444-x-6-6-66-|
E|-44444444------------------------|-44444444------------------------|

Verse
 |Both guitars
E|----------------------------------------------|
B|----------------------------------------------|
G|------66666-8888888888-------66666-8888888888-|
D|-6666-66666-8888888888--6666-66666-8888888888-|
A|-6666-44444-6666666666--6666-44444-6666666666-|
E|-4444-------------------4444------------------|

E|----------------------------------------------------|
B|----------------------------------------------------|
G|------66666-------66666-------66666--88888-88888888-|
D|-3333-66666--3333-66666--3333-66666--88888-88888888-|
A|-3333-44444--3333-44444--3333-44444--66666-66666666-|
E|-1111--------1111--------1111-----------------------|

Chorus (no lyrics)
 |Both guitars
E|---------------------------------|---------------------------------|
B|---------------------------------|---------------------------------|
G|----------5-3--66666666-x-8-8-88-|----------5-3--66666666-x-8-8-88-|
D|-66666666-5-3--66666666-x-8-8-88-|-66666666-5-3--66666666-x-8-8-88-|
A|-66666666-3-1--44444444-x-6-6-66-|-66666666-3-1--44444444-x-6-6-66-|
E|-44444444------------------------|-44444444------------------------|

Verse 2
(“it used to be us and...”
 |Guitar 1 only
E|--------------------------------------------------|
B|--------------------------------------------------|
G|-------666666-8888888888--------666666-8888888888-|
D|-66666-666666-8888888888--66666-666666-8888888888-|
A|-66666-444444-6666666666--66666-444444-6666666666-|
E|-44444--------------------44444-------------------|
PM  ****  *****  *********   ****  *****  ** *

 |Both guitars
E|----------------------------------------------------|
B|----------------------------------------------------|
G|------66666-------66666-------66666--88888-88888888-|
D|-3333-66666--3333-66666--3333-66666--88888-88888888-|
A|-3333-44444--3333-44444--3333-44444--66666-66666666-|
E|-1111--------1111--------1111-----------------------|
[ Tab from: http://www.guitaretab.com/p/pinhead-gunpowder/122254.html ]
Bridge
(“Lie”)
 |Guitar 1
E|---------------------------------|-------------------------------------------------|
B|---------------------------------|-------------------------------------------------|
G|-6-6-6------------6-6-6----------|-6-6-6-----------66666666-666666-88888888-888888-|
D|-6-x-6-x-66-4-6---6-x-6-x-66-4-6-|-6-x-6-x-66-4-6--66666666-666666-88888888-888888-|
A|-4-4-4-x-66-4-6---4-4-4-x-66-4-6-|-4-4-4-x-66-4-6--44444444-444444-66666666-666666-|
E|-------x-44-2-4---------x-44-2-4-|-------x-44-2-4----------------------------------|
 |Guitar 2
E|---------------------------------|-------------------------------------------------|
B|---------------------------------|-------------------------------------------------|
G|---------------------------------|-----------------66666666-666666-88888888-888888-|
D|---------66-4-6-----------66-4-6-|---------66-4-6--66666666-666666-88888888-888888-|
A|---------66-4-6-----------66-4-6-|---------66-4-6--44444444-444444-66666666-666666-|
E|---------44-2-4-----------44-2-4-|---------44-2-4----------------------------------|

 |Guitar 1
E|-----------------------|--------------------------------------------|
B|-----------------------|--------------------------------------------|
G|-6-----------6---------|-6----------66666666-666666-88888888-888888-|
D|-6--66-4-6---6--66-4-6-|-6--66-4-6--66666666-666666-88888888-888888-|
A|-4--66-4-6---4--66-4-6-|-4--66-4-6--44444444-444444-66666666-666666-|
E|----44-2-4------44-2-4-|----44-2-4----------------------------------|
 |Guitar 2
E|-----------------------|--------------------------------------------|
B|-----------------------|--------------------------------------------|
G|-----------------------|------------66666666-666666-88888888-888888-|
D|----66-4-6------66-4-6-|----66-4-6--66666666-666666-88888888-888888-|
A|----66-4-6------66-4-6-|----66-4-6--44444444-444444-66666666-666666-|
E|----44-2-4------44-2-4-|----44-2-4----------------------------------|


Outro
(“but war is going...”
 |Guitar 1
E|------------------------------------------------------|
B|------------------------------------------------------|
G|------66666-------66666-------66666--6--------6-------|
D|-3333-66666--3333-66666--3333-66666--6-66666666666666-|
A|-3333-44444--3333-44444--3333-44444--4-44444444444444-|
E|-1111--------1111--------1111-------------------------|
PM                                       **************
 |Guitar 2
E|------------------------------------------------------|
B|------------------------------------------------------|
G|-6666--------6666--------6666-------------------------|
D|------6666---------6666-------66666-------------------|
A|------------------------------------------------------|
E|------------------------------------------------------|

 |Guitar 1
E|------------------------------------------------------|
B|------------------------------------------------------|
G|-8-888888--8-8888888--88888888--8888888888------------|
D|-8-888888--8-8888888--88888888--8888888888--6~~~~~~-6-|
A|-6-666666--6-6666666--66666666--6666666666--6~~~~~~-6-|
E|--------------------------------------------4~~~~~~-4-|
PM   ******    *******
 |Guitar 2
E|------------------------------------------------------|
B|------------------------------------------------------|
G|-8---------8--------------8888--8888888888------------|
D|-8---------8--8888--8888888888--6~~~~~~-6-------------|
A|-6---------6--------------6666--6666666666--6~~~~~~-6-|
E|--------------------------------------------4~~~~~~-4-|
Related for Life During Wartime tab
Advertisement will be closed in 10 seconds