Song name
# A B C D E F G H I J K L M N O P Q R S T U V W X Y Z

Pinhead Gunpowder - Porch tab

e|---------------------------------------------------------------------------|
B|---------------------------------------------------------------------------|
G|-7--7--7--7--7--x--x-----------------------9-9-9-9-9-9-9-9-9-9-9-9-9-9-9-9-|
D|-7--7--7--7--7--x--x--7--7--7--7--7--x--x--9-9-9-9-9-9-9-9-9-9-9-9-9-9-9-9-|
A|-5--5--5--5--5--x--x--7--7--7--7--7--x--x--7-7-7-7-7-7-7-7-7-7-7-7-7-7-7-7-|
E|----------------------5--5--5--5--5--x--x----------------------------------|

e|---------------------------------------------------------------------------|
B|---------------------------------------------------------------------------|
G|-7--7--7--7--7--x--x-----------------------7-7-7-7-7-7-7-7-7-7-7-7-7-7-7-7-|
D|-7--7--7--7--7--x--x--7--7--7--7--7--x--x--7-7-7-7-7-7-7-7-7-7-7-7-7-7-7-7-|
A|-5--5--5--5--5--x--x--7--7--7--7--7--x--x--5-5-5-5-5-5-5-5-5-5-5-5-5-5-5-5-|
E|----------------------5--5--5--5--5--x--x----------------------------------|

e|---------------------------------------------------------------------------|
B|---------------------------------------------------------------------------|
G|-9-9-9-9-9-9-9-9-9-9-9-9-9-9-9-9-----------------------5--5--5--5--5--x--x-|
D|-9-9-9-9-9-9-9-9-9-9-9-9-9-9-9-9--5--5--5--5--5--x--x--5--5--5--5--5--x--x-|
A|-7-7-7-7-7-7-7-7-7-7-7-7-7-7-7-7--5--5--5--5--5--x--x--3--3--3--3--3--x--x-|
E|----------------------------------3--3--3--3--3--x--x----------------------|

e|---------------------------------------------------------------------------|
B|---------------------------------------------------------------------------|
G|----------------------5--5--5--5--5--x--x----------------------------------|
D|-5--5--5--5--5--x--x--5--5--5--5--5--x--x--5--5--5--5--5--x--x-------------|
A|-5--5--5--5--5--x--x--3--3--3--3--3--x--x--5--5--5--5--5--x--x-------------|
E|-3--3--3--3--3--x--x-----------------------3--3--3--3--3--x--x-------------|

e|---------------------------------------------------------------------------|
B|---------------------------------------------------------------------------|
G|-5--5--5--5--5--x--x--7-7-7-7-7-7-7-7-7------------------------------------|
D|-5--5--5--5--5--x--x--7-7-7-7-7-7-7-7-7------------------------------------|
A|-3--3--3--3--3--x--x--5-5-5-5-5-5-5-5-5------------------------------------|
E|---------------------------------------------------------------------------|
Tap to rate this tab
# A B C D E F G H I J K L M N O P Q R S T U V W X Y Z