Song name
# A B C D E F G H I J K L M N O P Q R S T U V W X Y Z

Pinhead Gunpowder - Mahogany tab

-----------------------------------------------------------------------------
          MAHOGONY- Pinhead Gunpowder
-----------------------------------------------------------------------------

By:Cliff Huff  

Intro ("Do ya know…"part):
e|-----------------------------------------------------------------------------------------------|
B|-----------------------------------------------------------------------------------------------|
G|-----------------------------------------------------------------------------------------------|
D|----------4-4-4-4-4-10-10-10-10-10-----------8-8-8-8-8-----------4-4-4-4-3-3-3-3-10-10-10-10-10|
A|4-4-4-4-4-2-2-2-2-2--8--8--8--8--8-8-8-8-8-8-6-6-6-6-6-4-4-4-4-4-2-2-2-2-1-1-1-1--8--8--8--8--8|
E|2-2-2-2-2--------------------------6-6-6-6-6-----------2-2-2-2-2-------------------------------|

Verse:
e|---------------------------------------------------------------------|
B|---------------------------------------------------------------------|
G|---------------------------------------------------------------------|
D|12-12-12-12-12-------------------------------------------------8-8-8-|
A|10-10-10-10-10-8-8-8-8-8-8-8-8-8-8-8-8-6-6-6-6-6-6-4-4-4-4-4-4-6-6-6-|
E|---------------6-6-6-6-6-6-6-6-6-6-6-6-4-4-4-4-4-4-6-6-6-6-6-6-------|

e|---------------------------------------------------------------------------------------|
B|---------------------------------------------------------------------------------------|
G|---------------------------------------------------------------------------------------|
D|8-8-8-8-8-10-10-10-10-10-10-10-10-10-10---------------------------------10-10-10-10-10-|
A|6-6-6-6-6-8--8--8--8--8--8--8--8--8--8--6-6-6-6-6-6-6-6-6-6-6-6-6-6-6-6--8--8--8--8--8-|
E|----------------------------------------4-4-4-4-4-4-4-4-4-4-4-6-6-6-6-6----------------|
Tap to rate this tab
# A B C D E F G H I J K L M N O P Q R S T U V W X Y Z