Song name
# A B C D E F G H I J K L M N O P Q R S T U V W X Y Z

Pinhead Gunpowder - Mahogany tab

Mahogany - as performed by Pinhead Gunpowder
Standard Tuning
Tabbed by Bevan Cowan
---------------------------
Song Order:

Intro/Chorus x2
Verse x1
Intro/Chorus x1
Verse x1
Intro/Chorus x2
---------------------------

Intro/Chorus:
e|----------------------|
B|----------------------|
G|----------------------|
D|-11-9-10-8-8-11-9-8-8-|
A|-9--9-8--8-6-9--9-8-6-|
E|----7----6------7-6---|

Verse:
e|----------------------|
B|----------------------|
G|----------------------|
D|-8-4-8--8-11-8-6-8----|
A|-8-4-6--6-9--8-6-8----|
E|-6-6---------6-4-6----|
   * *
---------------------------

* = Palm Mute
Tap to rate this tab
 
# A B C D E F G H I J K L M N O P Q R S T U V W X Y Z