Song name
# A B C D E F G H I J K L M N O P Q R S T U V W X Y Z

Pinhead Gunpowder - Life During Wartime tab

-------------------------------------------------------------------------------
              LIFE DURING WARTIME - PINHEAD GUNPOWDER
-------------------------------------------------------------------------------
Tabbed by:FENDER52
Email:

Tuning:
chorus
e|----------------------------|-------------------------|
B|----------------------------|-------------------------|
G|------------6-4-7-7-777-8-8-|---------6-4-7-7-777-8-8-|
D|-xx-7-7-777-6-4-7-7-777-8-8-|-7-7-777-6-4-7-7-777-8-8-|
A|-xx-7-7-777-4-2-5-5-555-6-6-|-7-7-777-4-2-5-5-555-6-6-|
E|-xx-5-5-555-----------------|-5-5-555-----------------|
verse
e|--------------------|--------------------|
B|--------------------|--------------------|
G|------7777-99999999-|------7777-99999999-|
D|-7777-7777-99999999-|-7777-7777-99999999-|
A|-7777-5555-77777777-|-7777-5555-77777777-|
E|-5555---------------|-5555---------------|

e|--------------------|--------------------|
B|--------------------|--------------------|
G|------7777-99999999-|------7777-99999999-|
D|-4444-7777-99999999-|-4444-7777-99999999-|
A|-4444-5555-77777777-|-4444-5555-77777777-|
E|-2222---------------|-2222---------------|

e|------------|     e|-----------|
B|------------|     B|-----------|
G|-7777-------|  x2 G|-88888888--|
D|-7777-7-5-7-|     D|-88888888--|
A|-5555-7-5-7-|     A|-66666666--|
E|------5-3-5-|     E|-----------|

e|------------|------------|--|
B|------------|------------|--|
G|-7xxx-------|-7xxx-------|--|
D|-7xxx-7-5-7-|-7xxx-7-5-7-|--|
A|-5xxx-7-5-7-|-5xxx-7-5-7-|--|
E|------5-3-5-|------5-3-5-|--|

then repeat chorus and end on A5
Tap to rate this tab
# A B C D E F G H I J K L M N O P Q R S T U V W X Y Z