Guitaretab - guitar tabs
Song name
# A B C D E F G H I J K L M N O P Q R S T U V W X Y Z

Pinhead Gunpowder - Achin To Be tab

album: shoot the moon
artist: pinhead gunpowder
song: achin to be

tuning: standard (eBGDAE)
legend:
          x - dead string/dead note
          ~ - let it ring
          

intro:

   guitar 1:
 
e|----------------------------------------|
B|----------------------------------------|
G|--7x7-777-------------------------------| (2x)
D|--7x7-777---4x4-444--5x5-555--5x5-555---|
A|--5x5-555---4x4-444--5x5-555--5x5-555---|
E|------------2x2-222--3x3-333--3x3-333---|

   guitar 2:

e|----------------------------------------|
B|----------------------------------------|
G|--7x7-777-------------------------0-----| (2x)
D|--7x7-777---4x4-444--5x5-555--------0~--|
A|--5x5-555---4x4-444--5x5-555----2-------|
E|------------2x2-222--3x3-333--3---------|

verse 1 

   guitar 1 only

e|-------------------------------------------------------------------------|
B|-------------------------------------------------------------------------|
G|--7x7-777--------------------7x7-777-----------7x7-777-----------7x7-777-|
D|--7x7-777--4x4-444--5x5-555--7x7-777--5x5-555--7x7-777--5x5-555--7x7-777-|
A|--5x5-555--4x4-444--5x5-555--5x5-555--5x5-555--5x5-555--5x5-555--5x5-555-|
E|-----------2x2-222--3x3-333-----------3x3-333-----------3x3-333----------|

verse 2

   both guitars

e|-------------------------------------------------------------------------|
B|-------------------------------------------------------------------------|
G|--7x7-777--------------------7x7-777-----------7x7-777-----------7x7-777-|
D|--7x7-777--4x4-444--5x5-555--7x7-777--5x5-555--7x7-777--5x5-555--7x7-777-|
A|--5x5-555--4x4-444--5x5-555--5x5-555--5x5-555--5x5-555--5x5-555--5x5-555-|
E|-----------2x2-222--3x3-333-----------3x3-333-----------3x3-333----------|


chorus

   both guitars
[ Tab from: http://www.guitaretab.com/p/pinhead-gunpowder/247738.html ]
e|------------------------------------------------------------------------|
B|------------------------------------------------------------------------|
G|-----------------------------4x4-444-----------7x7-777------------------| 
D|--4x4-444--5x5-555--4x4-444--4x4-444--5x5-555--7x7-777--5x5-5555555555--|
A|--4x4-444--5x5-555--4x4-444--2x2-222--5x5-555--5x5-555--5x5-5555555555--|
E|--2x2-222--3x3-333--2x2-222-----------3x3-333-----------3x3-3333333333--|


repeat intro
verse 3 (verse one's progression)
verse 4 (verse two's progression)
repeat chorus

fill

e|----------------|
B|----------------|
G|---7777777777---|
D|---7777777777---|
A|---5555555555---|
E|----------------|

bridge

   both guitars

e|--------------------------------------|
B|--------------------------------------|
G|--------------------------------------|
D|--7x7-777--5x5-555--7x7-777--5x5-555--|
A|--7x7-777--5x5-555--7x7-777--5x5-555--|
E|--5x5-555--3x3-333--5x5-555--3x3-333--|


interlude

   guitar 1:

e|----------------------------------------|
B|----------------------------------------|
G|--7x7-777-------------------------------| (2x)
D|--7x7-777---4x4-444--5x5-555--5x5-555---|
A|--5x5-555---4x4-444--5x5-555--5x5-555---|
E|------------2x2-222--3x3-333--3x3-333---|

   guitar 2: (just play this the second time the guitar 1 plays the prog. )

e|--2---------3--------2~----|
B|----5-3-5-----5-3--3-------|
G|---------------------------|
D|---------------------------|
A|---------------------------|
E|---------------------------|


verse 5 (verse one's progression)
verse 6 (verse two's progression)
repeat chorus
repeat intro


last chord

e|---------|
B|---------|
G|---7~~~--|
D|---7~~~--|
A|---5~~~--|
E|---------|

____________________________________________________________________________

song structure

intro
verse 1 (well she's kinda like an artist...)
verse 2 (well she's kinda like a movie...)
chorus  (she opens her mouth to speak...)
intro
verse 3 (well she dances along in nightclubs...)
verse 4 (and she's kinda like a poet...)
chorus
bridge  (i've been achin for a while now,friend...)
interlude
verse 5 (she's kinda like an artist...)
verse 6 (i saw one of your pictures...)
chorus
____________________________________________________________________________

well,that's it...this is accurate,i tell 'ya...you can trus this a hundred
percent...this is a nice song by pinhead gunpowder...guitar 1 is jason white
and he's the singer. guitar 2 is billie joe armstrong ! :D have fun!
____________________________________________________________________________

imbued with unending grace ! one for ust!
long live earth! XD
Related for Achin To Be tab
Achin To Be chords by Pinhead Gunpowder