Song name
# A B C D E F G H I J K L M N O P Q R S T U V W X Y Z

Pinhead Gunpowder - Landlords tab

artist:pinhead gunpowder
album: 8 chords, 328 words ( EP ) / Kick Over The Traces
song:landlords


tuning: standard
key: F#

 ------------
|   verse 1  |
 ------------

e|----------------------------------------------------------------------------------------------|
B|----------------------------------------------------------------------------------------------|
G|--------------------666666---------------------------------------666666-----------------------|
D|--6666666666666666--666666--444444--666666-4-6-6666666666666666--666666-444444--666666666666--|
A|--6666666666666666--444444--444444--666666-4-6-6666666666666666--444444-444444--666666666666--|
E|--4444444444444444----------222222--444444-2-4-4444444444444444---------222222--444444444444--|

 ------------
|   chorus   |
 ------------

e|------------------------------------------|
B|------------------------------------------|
G|--66666666--------------------------------| ( 2x )
D|--66666666--66666666--44444444--66666666--|
A|--44444444--66666666--44444444--66666666--|
E|------------44444444--22222222--44444444--|

 -------------------
|   progression 2   |
 -------------------

e|--------------------------------------------------------|
B|--------------------------------------------------------|
G|--66666666--88888888--666666---------88888888--6-5-3----|
D|--66666666--88888888--666666-666666--88888888--6-5-3-6--|
A|--44444444--66666666--444444-666666--66666666--4-3-1-6--|
E|-----------------------------444444------------------4--|


e|----------------------------------------------|
B|----------------------------------------------|
G|--88888888--666666---------88888888--6-5-3----|
D|--88888888--666666-666666--88888888--6-5-3-6--|
A|--66666666--444444-666666--66666666--4-3-1-6--|
E|-------------------444444------------------4--|

 ------------
|   bridge   |
 ------------

e|----------------------------------------------------------|
B|----------------------------------------------------------|
G|--8888888888------------------10101010101010101010101010--|
D|--8888888888--888-- (3x then) 10101010101010101010101010--|
A|--6666666666--888-------------8-8-8-8-8-8-8-8-8-8-8-8-8---|
E|--------------666-----------------------------------------|

 ----------
|   solo   |
 ----------

guitar 2:

e|--44----44----44----44----44----44----44------------------------------------|
B|-----44----44----44----44----44----44----77-66-44---------------------------|
G|--------------------------------------------------6-666666------------------|
D|----------------------------------------------------666666--444444--666666--|
A|----------------------------------------------------444444--444444--666666--|
E|------------------------------------------------------------222222--444444--|

e|-------44----44----44----44----44----44----44------------------------------------|
B|----------44----44----44----44----44----44----77-66-44---------------------------|
G|-------------------------------------------------------6-666666------------------|
D|--4-6----------------------------------------------------666666--444444--666666--|
A|--4-6----------------------------------------------------444444--444444--666666--|
E|--2-4------------------------------------------------------------222222--444444--|


guitar 1


e|----------------------------------------------------------------------------------------------|
B|----------------------------------------------------------------------------------------------|
G|--------------------666666---------------------------------------666666-----------------------|
D|--6666666666666666--666666--444444--666666-4-6-6666666666666666--666666-444444--666666666666--|
A|--6666666666666666--444444--444444--666666-4-6-6666666666666666--444444-444444--666666666666--|
E|--4444444444444444----------222222--444444-2-4-4444444444444444---------222222--444444444444--|

 ------------
|   chorus   |
 ------------

e|------------------------------------------|
B|------------------------------------------|
G|--66666666--------------------------------| ( 2x )
D|--66666666--66666666--44444444--66666666--|
A|--44444444--66666666--44444444--66666666--|
E|------------44444444--22222222--44444444--|

 ------------
|   verse 3  |
 ------------

e|--------------------------------------------------------|
B|--------------------------------------------------------|
G|--66666666--88888888--666666---------88888888--6-5-3----|
D|--66666666--88888888--666666-666666--88888888--6-5-3-6--|
A|--44444444--66666666--444444-666666--66666666--4-3-1-6--|
E|-----------------------------444444------------------4--|


e|----------------------------------------------------||
B|----------------------------------------------------||
G|--88888888--666666---------88888888--6~-666-55-3----||
D|--88888888--666666-666666--88888888--6~-666-55-3-6--||
A|--66666666--444444-666666--66666666--4~-444-33-1-6--||
E|-------------------444444------------------------4--||

__________________________________________________________________________________
song structure:

verse 1: cold floors, landlords...
chorus: cut the power off, give me cold,cramped rooms...
verse 2:this is, this is how we live from our mistakes...
chorus: cut the power off and give me cold, cramped rooms...
bridge:Noise spilling out from the traffic on the boulevard...
solo
chorus: cut the power off and give me cold, cramped rooms...
verse 3: this is how we respond to a crisis...
___________________________________________________________________________________

hey oh!here i am! here we go ,life's waiting to begin! haha this is landlords
tab (not acoustic,err).this is accurate, i assure you. but if you find a hard
time playing the chords,maybe i should submit a chord version for beginners.
Just listen to the song for the timing :D btw ,billie joe is the guitar 2(lead)
here, jason white is the guitar1 and the vocalist
__________________________________________________________________________________

cheers!
LAST NIGHT ON EARTH! XD
Tap to rate this tab
 
# A B C D E F G H I J K L M N O P Q R S T U V W X Y Z