Song name
# A B C D E F G H I J K L M N O P Q R S T U V W X Y Z

Pinhead Gunpowder - At Your Funeral tab

 
e----------------------------------------|   
B----------------------------------------|     
G--4-----7-----4--6-7-----6-7--7--7-6----|    
D--4--5--7--7--4--x-x--5--x-x--7--x-x--7-|  
A--2--5--5--7--2--4-5--5--4-5--5--5-4--7-|    
E-----3-----5----------3---------------5-|
   

e-----------------------------------|   
B-----------------------------------|     
G--7--4-----5--7--------------------|    
D--7--4--5--5--7--------------------|  
A--5--2--5--3--5--------------------|    
E--------3--------------------------|

 (Better, Late than never)
e-----------------------------------|   
B-----------------------------------|     
G--------7--------------------------|    
D--7--5--7--------------------------|  
A--7--5--5--------------------------|    
E--5--3-----------------------------|
Tap to rate this tab
# A B C D E F G H I J K L M N O P Q R S T U V W X Y Z