Song name
# A B C D E F G H I J K L M N O P Q R S T U V W X Y Z

Pinhead Gunpowder - Train Station tab

Verse
e---------------------------------------|
B---------------------------------------|
G-------6-------------------------------|
D---7---6-------------------------------|
A---7---4-------------------------------|
E---5-----------------------------------|


Chorus (Telling me that you're sorry, that you miss me)
e-----------------------------------|
B-----------------------------------|
G---7-----7-----7-----7-------------|
D---7--7--7--7--7--7--7--5--7-------|
A---5--7--5--7--5--7--5--5--7-------|
E------5-----5-----5-----3--5-------|


Chorus (Thinking if I look hard enough into each passing face)
e-----------------------------------|
B-----------------------------------|
G---7-----7-----7-----7-------------|
D---7--7--7--7--7--7--7--7--9-------|
A---5--7--5--7--5--7--5--7--9-------|
E------5-----5-----5-----5--7-------|


Outro (Having so much fun, wish you were here)
e------------------------------------|
B------------------------------------|
G---7-----7-----7-----7-----7--------|
D---7--7--7--7--7--7--7--7--7--5--7--|
A---5--7--5--7--5--7--5--7--5--5--7--|
E------5-----5-----5-----5-----3--5--|
                           p.m
Tap to rate this tab
 
# A B C D E F G H I J K L M N O P Q R S T U V W X Y Z