Song name
# A B C D E F G H I J K L M N O P Q R S T U V W X Y Z

Pinhead Gunpowder - Letter From An Old Friend tab

Artist: Pinhead Gunpowder
Song: Letter From An Old Friend
Tab: Guitar
Tuning: Standard (E A D G B E)

Intro
|-------------------------------------|
|-------------------------------------|
|-------------7---------4-------------|
|---777-------7---------4------7------|
|---777-------5---------2------7------|
|---555------------------------5------|

Verse
|-------------------------------------|
|-------------------------------------|
|--------------7--7x-------5---4------|
|---777x-------7--7x-------5---4------|
|---777x-------5--5x-------3---2------|
|---555x------------------------------|

|------------------------------------|
|------------------------------------|
|-------------7--------5-5-5--4------|
|---777-------7--------5-3-5--4------|
|---777-------5--------3-3-3--2------|
|---555------------------------------|

Chorus
|-------------------------------------|
|-------------------------------------|
|-------------7---------4-------------|
|---777-------7---------4------7------|
|---777-------5---------2------7------|
|---555------------------------5------|

This is an awesome song by an awesome band.
Basically repeats itself, fortiming listen to song.
Enjoy! If you hate then oh well u tab it then.

Idiot124
Tap to rate this tab
# A B C D E F G H I J K L M N O P Q R S T U V W X Y Z