Song name
# A B C D E F G H I J K L M N O P Q R S T U V W X Y Z

Pinhead Gunpowder - 2nd Street tab

Band: Pinhead Gunpowder
Song: 2nd Street
Album: Compulsive Disclosure
Email: Greenday_Rhcp2002@yahoo.co.uk
Corrected End of interlude

Intro
|---------------------------------|
|---------------------------------|
|---------7-7-7-7-5-5-5-5-7-7-7-7-|
|-5-5-5-5-7-7-7-7-5-5-5-5-7-7-7-7-|
|-5-5-5-5-5-5-5-5-3-3-3-3-5-5-5-5-|
|-3-3-3-3-------------------------|x3
Pm. . . . . . . . . . . . . . . .

|-----------------------------|
|-----------------------------|
|---------7-7-7-7-5-5-5-5-7-7-|
|-5-5-5-5-7-7-7-7-5-5-5-5-7-7-|
|-5-5-5-5-5-5-5-5-3-3-3-3-5-5-|
|-3-3-3-3---------------------|x1
  . . . . . . . . 

Main riff
|---------------------------------|
|---------------------------------|
|---------7-7-7-7-5-5-5-5-7-7-7-7-|
|-5-5-5-5-7-7-7-7-5-5-5-5-7-7-7-7-|
|-5-5-5-5-5-5-5-5-3-3-3-3-5-5-5-5-|
|-3-3-3-3-------------------------|

Chorus
|-----------------------------------------------------------------|
|-----------------------------------------------------------------|
|---------5-5-5-5-------------------------5-5-5-5-5-5-5-5-7-7-7-7-|
|-7-7-7-7-5-5-5-5-7-7-7-7-5-5-5-5-7-7-7-7-5-5-5-5-5-5-5-5-7-7-7-7-|
|-7-7-7-7-3-3-3-3-7-7-7-7-5-5-5-5-7-7-7-7-3-3-3-3-3-3-3-3-5-5-5-5-|
|-5-5-5-5---------5-5-5-5-3-3-3-3-5-5-5-5-------------------------|

Interlude
|------------------------------------------------------------------|
|------------------------------------------------------------------|
|-9-9-9-9-5-5-5-5---------5-5-----9-9-9-9-5-5-5-5-7777777777777777-|
|-9-9-9-9-5-5-5-5-5-5-5-5-5-5-5-5-9-9-9-9-5-5-5-5-7777777777777777-|
|-7-7-7-7-3-3-3-3-5-5-5-5-3-3-5-5-7-7-7-7-3-3-3-3-5555555555555555-|
|-----------------3-3-3-3-----3-3----------------------------------|

Outro
|---------------------------------------------------------|
|---------------------------------------------------------|
|---------7-7-7-7-5-5-5-5-7-7-7-7---------7-7-7-7-5-5-5-5-|
|-5-5-5-5-7-7-7-7-5-5-5-5-7-7-7-7-5-5-5-5-7-7-7-7-5-5-5-5-|
|-5-5-5-5-5-5-5-5-3-3-3-3-5-5-5-5-5-5-5-5-5-5-5-5-3-3-3-3-|
|-3-3-3-3-------------------------3-3-3-3-----------------|
Pm. . . . . . . . . . . . . . . . . . . . . . . . . . . . 


|-------------|
|-------------|
|-7-7-7-7-----|
|-7-7-7-7--5~-|
|-5-5-5-5--5~-|
|----------3~-|
Pm. . . .


Intro     x1
Main riff x4
Chorus    x1
Mainriff  x4
Solo/Main riff x4
Chorus    x1
Interlude x1
Main riff x6
Outro     x1
Tap to rate this tab
# A B C D E F G H I J K L M N O P Q R S T U V W X Y Z