Song name
# A B C D E F G H I J K L M N O P Q R S T U V W X Y Z

Pinhead Gunpowder - My Boot In Your Face Is What Keeps Me Alive tab

-----------------------------------------------------------------------------    
          MY BOOT IN YOUR FACE IS WHAT KEEPS ME ALIVE - PINHEAD GUNPOWDER
-----------------------------------------------------------------------------
Tabbed by:39/Smooth
I'm surprised no one has Tabbed this yet.

VERSE
e|--------------------------------------------------------------------|
B|--------------------------------------------------------------------|
G|------------5-5-5-5-----------5-5-7-7-------------------------------|
D|---5-5-5-5--5-5-5-5--5-5-5-5--5-5-7-7-------------------------------|
A|---5-5-5-5--3-3-3-3--5-5-5-5--3-3-5-5-------------------------------|
E|---3-3-3-3-----------3-3-3-3----------------------------------------|

e|--------------------------------------------------------------------|
B|--------------------------------------------------------------------|
G|-----------5-5-5-5--7-7-7-7-7-7-7-7---------------------------------|
D|--5-5-5-5--5-5-5-5--7-7-7-7-7-7-7-7---------------------------------|
A|--5-5-5-5--3-3-3-3--5-5-5-5-5-5-5-5---------------------------------|
E|--3-3-3-3-----------------------------------------------------------|

e|--------------------------------------------------------------------|
B|--------------------------------------------------------------------|
G|-----------9-9-7-7-----------5-5-7-7--------------------------------|
D|--5-5-5-5--9-9-7-7--5-5-5-5--5-5-7-7--------------------------------|
A|--5-5-5-5--7-7-5-5--5-5-5-5--3-3-5-5--------------------------------|
E|--3-3-3-3-----------3-3-3-3-----------------------------------------|

e|--------------------------------------------------------------------|
B|--------------------------------------------------------------------|
G|-----------9-9-7-7----5-5-5-5--7-7-7-7------------------------------|
D|--5-5-5-5--9-9-7-7----5-5-5-5--7-7-7-7------------------------------|
A|--5-5-5-5--7-7-5-5----3-3-3-3--5-5-5-5------------------------------|
E|--3-3-3-3-----------------------------------------------------------|

OUTRO
e|--------------------------------------------------------------------|
B|--------------------------------------------------------------------|
G|------------5-5-5-5-----------5-5-7-7-------------------------------|
D|---5-5-5-5--5-5-5-5--5-5-5-5--5-5-7-7-------------------------------|
A|---5-5-5-5--3-3-3-3--5-5-5-5--3-3-5-5-------------------------------|
E|---3-3-3-3-----------3-3-3-3----------------------------------------|

e|--------------------------------------------------------------------|
B|--------------------------------------------------------------------|
G|-----------5-5-5-5--7-7-7-7-7-7-7-7---------------------------------|
D|--5-5-5-5--5-5-5-5--7-7-7-7-7-7-7-7---------------------------------|
A|--5-5-5-5--3-3-3-3--5-5-5-5-5-5-5-5---------------------------------|
E|--3-3-3-3-----------------------------------------------------------|

e|--------------------------------------------------------------------|
B|--------------------------------------------------------------------|
G|-----------9-9-7-7-----------5-5-7-7--------------------------------|
D|--5-5-5-5--9-9-7-7--5-5-5-5--5-5-7-7--------------------------------|
A|--5-5-5-5--7-7-5-5--5-5-5-5--3-3-5-5--------------------------------|
E|--3-3-3-3-----------3-3-3-3-----------------------------------------|

e|--------------------------------------------------------------------|
B|--------------------------------------------------------------------|
G|-----------9-9-7-7----5---------------------------------------------|
D|--5-5-5-5--9-9-7-7----5---------------------------------------------|
A|--5-5-5-5--7-7-5-5----3---------------------------------------------|
E|--3-3-3-3-----------------------------------------------------------|

ENDING
e|--------------------------------------------------------------------|
B|--------------------------------------------------------------------|
G|---5555555555555555555555-------------------------------------------|
D|---5555555555555555555555-------------------------------------------|
A|---3333333333333333333333-------------------------------------------|
E|--------------------------------------------------------------------|

EASY SONG!

| /  slide up
| \  slide down
| h  hammer-on
| p  pull-off
| ~  vibrato
| +  harmonic
| x  Mute note
===============================================================================
Tap to rate this tab
 
# A B C D E F G H I J K L M N O P Q R S T U V W X Y Z