Song name
# A B C D E F G H I J K L M N O P Q R S T U V W X Y Z

Pink Floyd - Brain Damage Acoustic tab

Brain Damage (Acoustic)
Pink Floyd
Performed by Roger Waters
Tabbed by Kanavazk using Guitar Pro 5

Before I continue I just wanted to say that I'm a novice at tabbing and that
I'm really new at this, so don't go yelling 'You suck!' at me or something...
This acoustic version of Brain Damage is found in the special features on the
documentary 'Classic Albums: Pink Floyd - The Making of The Dark Side of the
Moon.' You can also see it on YouTube. It should sound very close to that video.
It's 4/4 time & standard tuning. I made no effort to make the lyrics fit to the
note it should be sung at. All I did was put the lines at the measure where
you start singing them. I didn't try to add any musical marks on it so you have
to listen to it to get the feel and dynamics and stuff.

Plus I'm a real bad guitar player.

*UPDATE* Fixed some lyrics.

Intro
E||--2-------------2-------|--2---------2---------|--1-------------1-------|
B||----------3-------------|----------------------|----------0-------------|
G||-------2-----------2----|-------2---------2----|-------0-----------0----|
D||--0----------0----------|--0---------0---------|--0----------0----------|
A||------------------------|----------------------|------------------------|
E||------------------------|----------------------|------------------------|


--1---------1---------|--2-------------2-------|--2---------2---------|
----------------------|----------3-------------|----------------------|
-------0---------0----|-------2-----------2----|-------2---------2----|
--0---------0---------|--0----------0----------|--0---------0---------|
----------------------|------------------------|----------------------|
----------------------|------------------------|----------------------|


--1-------------1-------|--1---------1---------|--2-------------2-------|
----------0-------------|----------------------|----------3-------------|
-------0-----------0----|-------0---------0----|-------2-----------2----|
--0----------0----------|--0---------0---------|--0----------0----------|
------------------------|----------------------|------------------------|
------------------------|----------------------|------------------------|

--2---------2---------|--4-------------4-------|--4---------4---------|
----------------------|----------5-------------|----------------------|
-------2---------2----|-------4-----------4----|-------4---------4----|
--0---------0---------|--0----------0----------|--0---------0---------|
----------------------|------------------------|----------------------|
----------------------|------------------------|----------------------|

--3-------------3-------|--3---------3---------|--2-------------2-------|
----------2-------------|----------------------|----------3-------------|
-------2-----------2----|-------2---------2----|-------2-----------2----|
--2----------2----------|--2---------2---------|--0----------0----------|
------------------------|----------------------|------------------------|
------------------------|----------------------|------------------------|

                        First Verse
--2-------------2-------|--2-------------2-------|--2-------------2-------|
----------3-------------|----------3-------------|----------3-------------|
-------2-----------2----|-------2-----------2----|-------2-----------2----|
--0----------0----------|--0----------0----------|--0----------0----------|
------------------------|------------------------|------------------------|
------------------------|------------------------|------------------------|
                                The lunitic is on the grass


--1-------------1-------|--1---------1---------|--2-------------2-------|
----------0-------------|----------------------|----------3-------------|
-------0-----------0----|-------0---------0----|-------2-----------2----|
--0----------0----------|--0---------0---------|--0----------0----------|
------------------------|----------------------|------------------------|
------------------------|----------------------|------------------------|
                                                        The lunitic is

--2-------------2-------|--1-------------1-------|--1---------1---------|
----------3-------------|----------0-------------|----------------------|
-------2-----------2----|-------0-----------0----|-------0---------0----|
--0----------0----------|--0----------0----------|--0---------0---------|
------------------------|------------------------|----------------------|
------------------------|------------------------|----------------------|
on the grass


--2-------------2-------|--2-------------2-------|--4-------------4-------|
----------3-------------|----------3-------------|----------5-------------|
-------2-----------2----|-------2-----------2----|-------4-----------4----|
--0----------0----------|--0----------0----------|--0----------0----------|
------------------------|------------------------|------------------------|
------------------------|------------------------|------------------------|
             Remembering games and daisy chains and laughs

--4-------------4-------|--3-------------3-------|--3-------------3-------|
----------5-------------|----------2-------------|----------2-------------|
-------4-----------0----|-------2-----------2----|-------2-----------0----|
--0----------0----------|--2----------2----------|--2----------2----------|
------------------------|------------------------|------------------------|
------------------------|------------------------|------------------------|
                          Got to keep the loonies on the path

--2-------------2-------|--2---------2---------|--2-------------2-------|
----------3-------------|----------------------|----------3-------------|
-------2-----------2----|-------2---------2----|-------2-----------2----|
--0----------0----------|--0---------0---------|--0----------0----------|
------------------------|----------------------|------------------------|
------------------------|----------------------|------------------------|
                                                     The lunatic is in the hall

--2-------------2-------|--1-------------1-------|--1---------1---------|
----------3-------------|----------0-------------|----------------------|
-------2-----------2----|-------0-----------0----|-------0---------0----|
--0----------0----------|--0----------0----------|--0---------0---------|
------------------------|------------------------|----------------------|
------------------------|------------------------|----------------------|

--2-------------2-------|--2-------------2-------|--1-------------1-------|
----------3-------------|----------3-------------|----------0-------------|
-------2-----------2----|-------2-----------2----|-------0-----------0----|
--0----------0----------|--0----------0----------|--0----------0----------|
------------------------|------------------------|------------------------|
------------------------|------------------------|------------------------|
     The lunatics are in my hall


--1---------1---------|--2-------------2-------|--2-------------2-------|
----------------------|----------3-------------|----------3-------------|
-------0---------0----|-------2-----------2----|-------2-----------2----|
--0---------0---------|--0----------0----------|--0----------0----------|
----------------------|------------------------|------------------------|
----------------------|------------------------|------------------------|
                            The paper holds their folded faces to the floor


--4-------------4-------|--4-------------4-------|--3-------------3-------|
----------5-------------|----------5-------------|----------2-------------|
-------4-----------4----|-------4-----------0----|-------2-----------2----|
--0----------0----------|--0----------0----------|--2----------2----------|
------------------------|------------------------|------------------------|
------------------------|------------------------|------------------------|
                                                       And every day the

--3-------------3-------|--2-------------2-------|--2---------2---------|
----------2-------------|----------3-------------|----------------------|
-------2-----------0----|-------2-----------2----|-------2---------0----|
--2----------2----------|--0----------0----------|--0---------0---------|
------------------------|------------------------|----------------------|
------------------------|------------------------|----------------------|
   paper boy brings more
                                                First Chorus
--2-------------2-------|--2---------2----2----|--3-------------3-------|
----------1-------------|----------------------|----------0-------------|
-------2-----------2----|-------2---------2----|-------0-----------0----|
--0----------0----------|--0---------0---------|--0----------0----------|
------------------------|----------------------|------------------------|
------------------------|----------------------|------------------------|
                                                     And if the dam breaks

--3-------------3-------|------------------------|------------------------|
----------0--------0----|--2-------------2-------|--2-------------2-------|
-------0----------------|----------2-------------|----------2--------0----|
--0----------0----------|-------2-----------2----|-------2----------------|
------------------------|--0----------0----------|--0----------0----------|
------------------------|------------------------|------------------------|
open                        many years too soon


------------------------|------------------------|--3-------------3-------|
--1-------------1-------|--1-------------1-------|----------3-------------|
----------0-------------|----------0-------------|-------4----------------|
-------2-----------2----|-------2-----------0----|--5----------5-----5----|
--3----------3----------|--3----------3----------|------------------------|
------------------------|------------------------|------------------------|
And if there is no room upon the hill


--3---------3---------|--3-------------3-------|--3-------------3-------|
----------------------|----------3-------------|----------3--------0----|
----------------------|-------4----------------|-------4-----------0----|
--5----5----5----5----|--5----------5-----5----|--5----------5----------|
----------------------|------------------------|------------------------|
----------------------|------------------------|------------------------|
                          And if your head explodes with

--0-------------0-------|--0---------0---------|------------------------|
----------2-------------|----------------------|--1-------------1-------|
-------2-----------2----|-------2---------2----|----------0-------------|
--2----------2----------|--2---------2---------|-------2-----------2----|
------------------------|----------------------|--3----------3----------|
------------------------|----------------------|------------------------|dark 
too                                I'll see you on the


------------------------|--3-------------3-------|------------------------|
--1-------------1-------|----------3-------------|--3-------------3-------|
----------0-------------|-------4----------------|----------4--------0----|
-------2-----------2----|--5---------------------|-------4-----------0----|
--3----------3----------|-------------5-----5----|--2----------2----------|
------------------------|------------------------|------------------------|
dark side of the moon
                                                 Second Verse
--0-------------0--------|----------------------|--2-------------2-------|
----------0--------------|--2---------2---------|----------3-------------|
-------0-----------------|-------2---------0----|-------2-----------2----|
--2----------2-----0--2--|-------2---------0----|--0----------0----------|
-------------------------|--0---------0---------|------------------------|
-------------------------|----------------------|------------------------|
                                                      The lunatic is in my head

--2-------------2-------|--1-------------1-------|--1---------1---------|
----------3-------------|----------0-------------|----------------------|
-------2-----------2----|-------0-----------0----|-------0---------0----|
--0----------0----------|--0----------0----------|--0---------0---------|
------------------------|------------------------|----------------------|
------------------------|------------------------|----------------------|


--2-------------2-------|--2-------------2-------|--1-------------1-------|
----------3-------------|----------3-------------|----------0-------------|
-------2-----------2----|-------2-----------2----|-------0-----------0----|
--0----------0----------|--0----------0----------|--0----------0----------|
------------------------|------------------------|------------------------|
------------------------|------------------------|------------------------|
     The lunatic is in my head

--1---------1---------|--2-------------2-------|--2-------------2-------|
----------------------|----------3-------------|----------3-------------|
-------0---------0----|-------2-----------2----|-------2-----------2----|
--0---------0---------|--0----------0----------|--0----------0----------|
----------------------|------------------------|------------------------|
----------------------|------------------------|------------------------|
                           You raise the blade

--4-------------4-------|--4-------------4-------|--3-------------3-------|
----------5-------------|----------5-------------|----------2-------------|
-------4-----------4----|-------4-----------0----|-------2-----------2----|
--0----------0----------|--0----------0----------|--2----------2----------|
------------------------|------------------------|------------------------|
------------------------|------------------------|------------------------|
   You make the change                              You re-arrange me 'til

--3-------------3-------|--2-------------2-------|--2---------2---------|
----------2-------------|----------3-------------|----------------------|
-------2-----------0----|-------2-----------2----|-------2---------0----|
--2----------2----------|--0----------0----------|--0---------0---------|
------------------------|------------------------|----------------------|
------------------------|------------------------|----------------------|
                 I'm sane

--2-------------2-------|--2-------------2-------|--4-------------4-------|
----------3-------------|----------3-------------|----------5-------------|
-------2-----------2----|-------2-----------2----|-------4-----------4----|
--0----------0----------|--0----------0----------|--0----------0----------|
------------------------|------------------------|------------------------|
------------------------|------------------------|------------------------|
    You lock the door                            and throw away the key

--4-------------4-------|--3-------------3-------|--3-------------3-------|
----------5-------------|----------2-------------|----------2-------------|
-------4-----------0----|-------2-----------2----|-------2-----------0----|
--0----------0----------|--2----------2----------|--2----------2----------|
------------------------|------------------------|------------------------|
------------------------|------------------------|------------------------|
                            There's someone in my head but it's not me

--2-------------2-------|--2---------2---------|--2-------------2-------|
----------3-------------|----------------------|----------1-------------|
-------2-----------2----|-------2---------0----|-------2-----------2----|
--0----------0----------|--0---------0---------|--0----------0----------|
------------------------|----------------------|------------------------|
------------------------|----------------------|------------------------|

                      Last Chorus

--2---------2----2----|--3-------------3-------|--3-------------3-------|
----------------------|----------0-------------|----------0--------0----|
-------2--------------|-------0-----------0----|-------0----------------|
--0---------0---------|--0----------0----------|--0----------0----------|
----------------------|------------------------|------------------------|
----------------------|------------------------|------------------------|
                            And if the cloud bursts


------------------------|-------------------------|------------------------|
--2-------------2-------|--2-------------2--------|--1-------------1-------|
----------2-------------|----------2--------------|----------0-------------|
-------2-----------2----|-------2-----------2--0--|-------2-----------2----|
--0----------0----------|--0----------0-----------|--3----------3----------|
------------------------|-------------------------|------------------------|
  Thunder in your ear                                   You shout and


------------------------|--3-------------3-------|--3-------------3-------|
--1-------------1-------|----------3-------------|----------3-------------|
----------0-------------|-------4----------------|-------4----------------|
-------2-----------0----|--5----------5-----5----|--5----------5-----5----|
--3----------3----------|------------------------|------------------------|
------------------------|------------------------|------------------------|
  No one seems to hear

--3-------------3-------|--3-------------3-------|------------------------|
----------3-------------|----------3--------0----|--2----------------2----|
-------4----------------|-------4-----------0----|----------2--2----------|
--5----------5-----5----|--5----------5----------|-------2--------2-------|
------------------------|------------------------|--0----------------0----|
------------------------|------------------------|------------------------|
  And if the band you're in starts                  Playing different tunes

------------------------|------------------------|------------------------|
--2----------------2----|--1-------------1-------|--1-------------1-------|
----------2--2----------|----------0-------------|----------0-------------|
-------2--------2-------|-------2-----------2----|-------2-----------2----|
--0----------------0----|--3----------3----------|--3----------3----------|
------------------------|------------------------|------------------------|
                           I'll see you on the dark side of the moon

--3-------------3-------|-------------------------|--0-------------0--------|
----------3-------------|--3-------------3-0------|----------0--------------|
-------4----------------|----------4---------0----|-------0-----------------|
--5---------------------|-------4------------0----|--2----------2-----0--2--|
-------------5-----5----|--2----------2-----------|-------------------------|
------------------------|-------------------------|-------------------------|

                         Outro
------------------------|--2-------------2-------|--2---------2----------|
--2-------------2-------|----------3-------------|-----------------------|
----------2--------0----|-------2----------------|-------2---------2-0---|
-------2-----------0----|--0----------0-----0----|--0---------0----------|
--0----------0----------|------------------------|-----------------------|
------------------------|------------------------|-----------------------|


--1-------------1-------|--1---------1---------|--2-------------2--------|
----------0-------------|----------------------|----------3-----------3--|
-------0-----------0----|-------0---------0----|-------2-----------2-----|
--0----------0----------|--0---------0---------|--0----------0-----------|
------------------------|----------------------|-------------------------|
------------------------|----------------------|-------------------------|


-----2-----------2--------|--1-------------1-------|--1---------1---------|
-----------3--------------|----------0-------------|----------------------|
--------2-----------2--0--|-------0----------------|-------0---------0----|
--0-----------0-----------|--0----------0-----0----|--0---------0---------|
--------------------------|------------------------|----------------------|
--------------------------|------------------------|----------------------|


--2-------------2-------|--2---------2---------|--4-------------4-------|
----------3-------------|----------------------|----------5-------------|
-------2----------------|-------2---------2----|-------4-----------4----|
--0----------0-----0----|--0---------0---------|--0----------0----------|
------------------------|----------------------|------------------------|
------------------------|----------------------|------------------------|

                                               Really strange time here (watch clip)
--4---------4---------|--3-------------3-------|--5----------3---------|
----------------------|----------2-------------|----------2------------|
-------4---------0----|-------2-----------2----|-------2---------------|
--0---------0---------|--2----------2----------|--2----------2----0----|
----------------------|------------------------|-----------------------|
----------------------|------------------------|-----------------------|


----------------------|--2--------------0----|--2----3----2----0----|
----------------------|------------3---------|----------------------|
----------------------|-------2--------------|----------------------|
--2--------------0----|----------------------|----------------------|
-------4----0---------|----------------------|----------------------|
----------------------|----------------------|----------------------|


--2----------------||
--3----------------||
--2----------------||
--0----------------||
-------------------||
-------------------||
Tap to rate this tab
 
# A B C D E F G H I J K L M N O P Q R S T U V W X Y Z