Song name
# A B C D E F G H I J K L M N O P Q R S T U V W X Y Z

Pink Floyd - Goodbye Cruel World tab

goodbye cruel world
Pink Floyd

i didnt put how many times but just the parts of the song its not hard to find out just listen to it.

intro
E-----------------------------------------------------------|
A------5----5----5----5-------------------------------------|
D-----------------------------------------------------------|
G--------7----7-----7----7----------------------------------|
B-----------------------------------------------------------|
e-----------------------------------------------------------|


verse
E-------------------3-----3-------------5-----------------------|
A----5------5---------------------5---------------5-------------|
D----------------------5-----5--------------7-------------------|
G-------7-----7----------------------7---------------7----------|
B---------------------------------------------------------------|
e---------------------------------------------------------------|


interlude part
E---------------------------------|
A----5------5---------------------|
D---------------------------------|
G-------7-----7-------------------|
B---------------------------------|
e---------------------------------|

thats pretty much it it just repeats it self again

tabbed by Ramone
Tap to rate this tab
# A B C D E F G H I J K L M N O P Q R S T U V W X Y Z