Song name
# A B C D E F G H I J K L M N O P Q R S T U V W X Y Z

Pink Floyd - Fearless tab

-----------------------------------------------------------------
Fearless - Pink Floyd
-----------------------------------------------------------------
Tabbed by: Rhys Gerwin
Email: Jiraoxys7@hotmail.com

Tuning: GGDGBB

| /  slide up
| \  slide down
| h  hammer-on
| p  pull-off
| ~  vibrato
| +  harmonic
| x  Mute note
| v  Pickstroke Up
| ^  Pickstroke Down

Chords Used
   G   A  A#   C   D
B|-0-|-2-|-3-|-5-|-7-|
B|-0-|-2-|-3-|-5-|-7-|
G|-0-|-2-|-3-|-5-|-7-|
D|-0-|-2-|-3-|-5-|-7-|
G|-0-|-2-|-3-|-5-|-7-|
G|-0-|-2-|-3-|-5-|-7-|

There are 4 guitars playing at once most of the time

This tab will just give you the basic structure of the
song you're gonna have to use scales and stuff to simulate
the lead guitars. I think the G Be-Bop scale works.

INTRO (basic srtucture)

 Stratocaster
B|-0v---------------------------------------------------------12+--|
B|-0v------------------1p0-----------------------------0----x-12+--|
G|-0v----------------------2p0--------------------0-------0-x-12+--|
D|-0v---------------------------0h2-0-----------0----0------x------|
G|-0v----------------------------------/5--------------------------|
G|-0v--------------------------------------/4----------------------|

 Acoustic(s)
B|-------------------------------------------------------------------------|
B|-------0--0-0-----0--0-0-----0--0-0-----0--0-0-----0--0-0----0--0-0-0--0-|
G|-------0--0-0-----0--0-0-----0--0-0-----0--0-0-----0--0-0----0--0-0-0--0-|
D|----0--0--0-0--0--0--0-0--0--0--0-0--0--0--0-0--0--0--0-0--0-0--0-0-0--0-|
G|----0----------0----------0----------0----------0----------0-------------|
G|----0----------0----------0----------0----------0----------0-------------|

 Stratocaster
B|---------------------------------------------------------------|
B|---------------------------------------------------------------|
G|------------4-----5-----7-----9-----11---12\0------------------|
D|-0-0-0-0-0--x-----x-----x-----x------x----x--------------------|
G|------------4-0-0-5-0-0-7-0-0-9-0-0-11-0-12\0------------------|
G|---------------------------------------------------------------|

 Acoustic(s)
B|------------------------------------------------0--------------|
B|-0--0-0-0---------------------------------------0-----0--0-0---|
G|-0--0-0-0---4-----5-----7-----9-----11---12\0---0-----0--0-0---|
D|-0--0-0-0---x-----x-----x-----x------x----x-----0--0--0--0-0---|
G|------------4-0-0-5-0-0-7-0-0-9-0-0-11-0-12\0---0--0-----------|
G|------------------------------------------------0--0-----------|

Acoustic(s)
   C G A#  A#
B|-----------|
B|-----------|
G|-5-0-3-x-3-|
D|-5-0-3-x-3-|
G|-5-0-3-x-3-|
G|-5-0-3-x-3-|

That's mostly what plays in the intro

VERSE 1

 Every now and then during verses
B|-12+-7+-|
B|-12+-7+-|
G|-12+-7+-|
D|--------|
G|--------|
G|--------|

VERSE:

G                                     C G A# A#
You say the hill's too steep to climb

G                                     C G A# A#
Climb it

G                                     C G A# A#
You say you'd like to see me try

G                                     C G A# A#
Climbing

A                                       D
You pick the place and i'll choose the time

         G                     C
And i'll climb that hill in my own way

G                         C
Just wait awhile for the right day

G                          C
And as I rise above the tree line and the clouds

          D                  C                                 G
I'll look down hear the sounds of the things you said today

BRIDGE:

Chords played

D  C

VERSE 2: Same Chords as VERSE 1

Fearlessly the idiot faced the crowd

Smiling.

Merciless the magistrate turns round

Frowning.

And whos the fool who wears the crown?

No doubt,

In your own way

And every day is the right day

And as you rise above the fear-lines in his brow

You look down, hear the sound of the faces in the crowd.


All throuought this song the slide guitars and normal guitar are
playing little diddlies. Just use the G Be-Bop scale and you'll probably be okay. The G 
scale consists of G A B C D E F F#
Tap to rate this tab
# A B C D E F G H I J K L M N O P Q R S T U V W X Y Z