Song name
# A B C D E F G H I J K L M N O P Q R S T U V W X Y Z

Pink Floyd - Hey You tab

Hey You
		    by Pink Floyd





capo on third fret

-----------0--------0--------------0--------0--------------2--------2----
--4-----------------------4-----------------------2-----------3----------
--------6-----6--------6--------6-----6--------6--------4--------4-----4-
-----6-----------6-----------6-----------6-----------4-------------------
-------------------------------------------------------------------------
-------------------------------------------------------------------------
	      v-- stop here second time.
-----------2--------2----
--2-----------3----------	<-- play twice from beginning.
--------4--------4-----4-
-----4-------------------
-------------------------
-------------------------

fig 1.
   ----------0--------0-------------------0--------------0-------
   -4-----------------------4------------------------------------
   -------6-----6--------6------------6-------6---------------6--
   ----6-----------6-------------6------------------6------------
   --------------------------------------------------------------
   --------------------------------------------------------------


---------0--------0--------------4-----------4-----------4--------4-----
-4----------4--------0--4-----4--------4--------4-----4-----4--------0--
------6-----------------------------4-----4--------------------4--------
---6-----------6-----------6-----------------------6--------------------
------------------------------------------------------------------------
------------------------------------------------------------------------

----------0--------0--------------0--------0--------------0--------0----
-4-----------------------4-----------------------4--------------------0-
-------6-----6--------6--------6-----6--------6--------6-----6----------
----6-----------6-----------6-----------6-----------6-----------6-------
------------------------------------------------------------------------
------------------------------------------------------------------------

-----------4--------4--------------4--------4--------------2--------2----
--4-----4-----4--------4--4-----4-----4--------4--2-----------4----------
-----------------4-----------------------4--------------4--------4-----4-
-----6-----------------------6-----------------------4-------------------
-------------------------------------------------------------------------
-------------------------------------------------------------------------

----------2--------2-----4-----------------0-----------0--------0-----
-2-----------4--------0--5-----5--4-----------2-----2-----2--------2--
-------2--------4--------4--4-----------4--------2-----------2--------
----4--------------------------------4--------------------------------
----------------------------------------------------------------------
----------------------------------------------------------------------
			end part a
----------0--------0-----
-2-----2-----2--------0--
----2-----------2--------
-------------------------
-------------------------
-------------------------

don't give in......
----------4--------4--------------2--------2--------------0--------0----
-4-----4-----4--------4--2-----2-----2--------0--4----------------------
----------------4-----------------------2--------------6-----6--------6-
----6-----------------------4-----------------------6-----------6-------
------------------------------------------------------------------------
------------------------------------------------------------------------

----------0--------0--------------2--------2--------------2-----
-4-----------------------2-----------3-----------2-----------3--
-------6-----6--------6--------4--------4-----4--------4--------
----6-----------6-----------4-----------------------4-----------
----------------------------------------------------------------
----------------------------------------------------------------

second verse:
with part a, plus 12 string accoustic playing chords(strum from high e to low e
once and only when chord is indicated below. kind'va slow strum.)

    Em9
Hey, you

Out there on you own, sitting naked by the phone, 

      Bm
would you touch me?

    Em9
Hey, you,

with you ear against the wall, waiting for someone to call out,

      Bm	      Dsus2
would you touch me?

			       ________ normal strums (1 each)
Hey, you,		       v v v	
			       G D C      part A should end after "stone"
Would you help me to carry the stone?

Bm	  		C        Em
	Open your heart, I'm coming home.


solo:

part B----------------------------------------------------------------------|
----------------------------------------------------------------------------
----------------------------------------------------------------------------
----------------------------------------------------------------------------
----------------------------------------------------------------------------
----------------------------------------------------------------------------
--10\--0--2-2>(3)-2vvvvvv-----0--2-2>(3)-2vvvvvv-----0-0-2-2>(3)-2vvvvvvv---

play part B 8 times


-----------------------------------------------------------------------------
-3>(5)=======(5)vvvvvvvvvvvvv(5)=====>3--3>(5)==(5)vvvvvvvvvvvvvvv(5)====>3--
-----------------------------------------------------------------------------
-----------------------------------------------------------------------------
-----------------------------------------------------------------------------
-----------------------------------------------------------------------------

-----------------------------------------------------------------------------
-3>(5)vvvvvvvvvvvvvvvvvvvv>(4)>(5)>===(4)>(5)>===(4)>(5)------3>(5)vvvvvvvv--
-----------------------------------------------------------------------------
-----------------------------------------------------------------------------
-----------------------------------------------------------------------------
-----------------------------------------------------------------------------

-------------------------------------------------------------------------------
--3/7vvvvvvvvvv--5-7-7>(8)>7vvvvvvvvv---5-7-7>(8)>7vvvvvvvv---5-7-7>(8)>7vvvv--
-------------------------------------------------------------------------------
-------------------------------------------------------------------------------
-------------------------------------------------------------------------------
-------------------------------------------------------------------------------

---------------5--7-5-7--7>(8)vvvvvvvvvv(8)==>7>(8)--7>(8)vvvvvvvv-7---
--5vvvvvv-7-8----------------------------------------------------------
-----------------------------------------------------------------------
-----------------------------------------------------------------------
-----------------------------------------------------------------------
-----------------------------------------------------------------------


--7>(8)vvvvvvv(8)===>7--7>(8)vvvvvvvvv----------12-----------------------
----------------------------------------15>(17)-----15>(17)vvvvvvv>(16)--
-------------------------------------------------------------------------
-------------------------------------------------------------------------
-------------------------------------------------------------------------
-------------------------------------------------------------------------

------------12---15-----------12--15-------------------------
---15>(17)-----------15>(17)----------15>(17)vvvvvvvvvvvvvv--
-------------------------------------------------------------
-------------------------------------------------------------
-------------------------------------------------------------
-------------------------------------------------------------

----------------------------------12------------------------------------
--15>(17)======>15>12----------12-----15>(17)=====>(16)>(17)=======>15--
-----------------------14>(16)------------------------------------------
------------------------------------------------------------------------
------------------------------------------------------------------------
------------------------------------------------------------------------

----------14-15/17-17/19--17--19--19>(20)========(20)>19---19>(20)-17>19--
--15>(17)-----------------------------------------------------------------
--------------------------------------------------------------------------
--------------------------------------------------------------------------
--------------------------------------------------------------------------
--------------------------------------------------------------------------
							  v-- slow dive w/ bar
--19>17--20--19>(20)==>19--19>(20)==========(20)==>19>17--19--------------
--------------------------------------------------------------------------
--------------------------------------------------------------------------
--------------------------------------------------------------------------
--------------------------------------------------------------------------
--------------------------------------------------------------------------


"But it was ...."
w/ capo
-------------------------------------------------------------------------
--2-----2--4----4---5----4--------2--2--2--2--2--2---2--2--2-2--2--2---4-
--2-----2--4----4---4----4--------2--2--2--2--2--2---2--2--2-2--2--2---4-
--2-----2--4----4---6----4--------2--2--2--2--2--2---2--2--2-2--2--2---4-
-------------------------------------------------------------------------
-------------------------------------------------------------------------

-------------------------------------------------------------------------
--4---5--4--2--2--2-2--2--2--2-2--2--2--4--4----5----4---2--2--2-2--2--2-
--4---4--4--2--2--2-2--2--2--2-2--2--2--4--4----4----4---2--2--2-2--2--2-
--4---6--4--2--2--2-2--2--2--2-2--2--2--4--4----6----4---2--2--2-2--2--2-
-------------------------------------------------------------------------
-------------------------------------------------------------------------

		...... brain "
-------------------------------
--2--2--2-2--2--2---4--4--4--4-
--2--2--2-2--2--2---4--4--4--4-
--2--2--2-2--2--2---4--4--4--4-
-------------------------------
-------------------------------


fretless bass solo;
w/capo						|------------part A-------
-----------0--------0--------------0--------0--------------2--------2-----
--4-----------------------4-----------------------2-----------3-----------
--------6-----6--------6--------6-----6--------6--------4--------4-----4--
-----6-----------6-----------6-----------6-----------4--------------------
--------------------------------------------------------------------------
--------------------------------------------------------------------------

-----part A---------------|
-----------2--------2----
--2-----------3--------0-	<-- repeat this figure 4 times. 
--------4--------4-------	on the last (4th) time substitue A for this;
-----4-------------------
-------------------------
-------------------------


-----2-----2--------2--------2-----2----
--2-----------3-----------2-----------3-
--------4--------4-----4--------4-------
-----4-----------------------4----------
----------------------------------------
----------------------------------------

last verse:
use same figure for guitar w/ capo.
Play these chords, strum once from high e to low e.

Em add9
Hey, you

out there on the road,

Em add 9
always doing what your told,

    Bm
can you help me?

Em add 9
Hey you,


out beyond the wall,

Em add 9
breaking bottles in the hall,

    Bm
can you help me?

(distorted guitar between sets of lyrics: B5  C5  C#5  D5)

Dsus 2
        Hey you,

			   --------- distorted guitar
			   | 	______________________	 accoustic guitar
			   v	V	V	V    |-> regular strum, one @
                          D5\   G	D	C	 dist. gutiar plays
don't tell me there no hope at all---------		 root 5th of these 

Bm<- backward strum, dist gutiar plays root 5th.
Together we stand,

	v-accoustic
	Em	E5<- distorted
divided we fall.
Tap to rate this tab
 
# A B C D E F G H I J K L M N O P Q R S T U V W X Y Z