Guitaretab - guitar tabs
Song name
# A B C D E F G H I J K L M N O P Q R S T U V W X Y Z

Pink Floyd - Run Like Hell tab

Intro Chords

---10--10--10---9----7-7--5-------------------------------|
---10--10--10---10---8-8--7---10--10-10--8---5-5-5--7-7-7-|
---7---7---7----7----7-7--7---9---9--9---7---7-7-7--7-7-7-|
------------------------------7---7--7---9---7-7-7--7-7-7-|
----------------------------------------------------------|
----------------------------------------------------------|
                     repeat twice

	     Em
   you better paint you face up in your favorite disquise
	     Fm
   with your button down hips and your roller blind eyes
	     Em
   with your empty smile and your hungry heart
	     Cmaj
   feel the bile rising from you guilty past
	     B7
   with your nerves in tatters as the cockleshell shatters
	     Em
   and the hammers batter down your door
	     (see riff below)
             You better run
[ Tab from: http://www.guitaretab.com/p/pink-floyd/14710.html ]
---------------------------------------------------------|
---------------------------------------------------------|
---------------------------------------------------------|
----------------3^0^---3^0^------------------------------| then go back to
--5-5-5-5-5-5-5-----0------5-5-5-5-5-5-5-3^0-5-0-5-------| beggining chords
---------------------------------------------------------|

	     Em
   you better run all day and run all night
	     Fm
   and keep your dirty feelings deep inside
	     Em
   and if your taking your gilfriend out tonight
	     Cmaj
   you better park the car well out of sight
	     B7
   cause if they catch you in the backseat trying to pick her locks
	     Em
   Their gonna send you back to mother in a cardboard box
	     (see above riff)


The solo is right here, I haven't tabbed it yet.


                      Outro

---10--10--10---9----7-7--5-------------------------------|
---10--10--10---10---8-8--7---10--10-10--8---5-5-5--7-7-7-|
---7---7---7----7----7-7--7---9---9--9---7---7-7-7--7-7-7-|
------------------------------7---7--7---9---7-7-7--7-7-7-|
----------------------------------------------------------|
----------------------------------------------------------|
Related for Run Like Hell tab
Advertisement will be closed in 10 seconds