Song name
# A B C D E F G H I J K L M N O P Q R S T U V W X Y Z

Pink Floyd - San Tropez tab

San Tropez
Meddle (1971)
Pink Floyd

Transcribbed by: Matt Schultz

Guitar 1 = Acoustic rythm in Standard Tuning
Guitar 2 = Pedal Steel in Standard tuning/E


intro:(Guitar 1)

  D7
|--------------||--------------|
|-3-3---3-3-3--||-3-3---3-3-3--|
|-5-5---5-5-5--||-5-5---5-5-5--|
|-4-4---4-4-4--||-4-4---4-4-4--| 
|-5-5---x-x-x--||-5-5---x-x-x--|
|-----5-5-5-5--||-----5-5-5-5--|


Verse:(guitar 1)
Gmaj7              Gmin7
|-----------------------------------|
|-3-3-3-3-3-3-3-3--3-3-3-3-3-3-3-3--|
|-4-4-4-4-4-4-4-4--3-3-3-3-3-3-3-3--|
|-4-4-4-4-4-4-4-4--3-3-3-3-3-3-3-3--|  x2
|-x-x-x-x-x-x-x-x--x-x-x-x-x-x-x-x--|
|-3-3-3-3-3-3-3-3--3-3-3-3-3-3-3-3--|

      ^                 ^
|-singing part-|   |-piano bits-|


Chorus:

G7                                          
Sleeping alone in the drone of the darkness
A7
Scratched by the sand that fell from our love 
C7
Deep in my dreams and I still hear her calling 

D7 (Alternate Bases like intro bit)
If your Alone I'll Come home, home, home

--------------------------------------------------

thats the main part (verses)

intro to solo; Guitar 2; over verse chords
|---------------------------|
|---------------------------|
|-s/4-0--s/4-0--s/3--(0h3)--|
|---------------------------|
|---------------------------|
|---------------------------|


solo: guitar 2; Over Chorus

|-----15------------------------17--------17-----------20-------20--------|
|-/12----12-----15-13\12-----------14--------14-----------17-------17-----|
|-----------12-----------12-/14--------14-------14-/17-------17-------17--|
|-------------------------------------------------------------------------|
|-------------------------------------------------------------------------|
|-------------------------------------------------------------------------|

|-----22-------22\---|
|--------19----19\---|
|-/19-------19-19\---|
|--------------------|
|--------------------|
|--------------------|


Tap to rate this tab
 
# A B C D E F G H I J K L M N O P Q R S T U V W X Y Z