Song name
# A B C D E F G H I J K L M N O P Q R S T U V W X Y Z

Pink Floyd - Set The Controls For The Heart Of The Sun tab

Set the Controls for the Heart of the Sun - Pink Floyd

tabbed by: chinups75

This is a very mellow, but cool song by Pink Floyd with a few easy to learn guitar
riffs for ya.  I've just labelled the different melodies as riffs and given the first
time they enter the song, after that it just repeats.

Riff A: (start of song)
e|--------------------------------------------------|
B|--------------------------------------------------|
G|--------------------------------------------------|
D|--------------------------------------------------|
A|--7-7-7--8--7--7--5-5-5--7------------------------|
E|--------------------------------------------------|

Riff B: (00:54)
e|--------------------------------------------------|
B|--------------------------------------------------|
G|--------------------------------------------------|
D|--7-7-7--8--7--7--5-5-5--7------------------------|
A|--------------------------------------------------|
E|--------------------------------------------------|

Riff C: (1:09)
e|--------------------------------------------------|
B|--------------------------------------------------|
G|--------------------------------------------------|
D|---------5s7--5--5--------------------------------|
A|--7-7-7------------8-8-8--7-----------------------|
E|--------------------------------------------------|

Riff A Variation: (1:26)
Just so you can't say I didn't tell you everything, he'll occasionally add in this Riff A Variation.
e|--------------------------------------------------|
B|--------------------------------------------------|
G|--------------------------------------------------|
D|--------------------------------------------------|
A|--5s7-7-7--8--7--7--5-5-5--7----------------------|
E|--------------------------------------------------|

Riff D: (2:13)
e|--------------------------------------------------|
B|--------------------------------------------------|
G|--------------------------------------------------|
D|--------------------------------------------------|
A|--5s7-7-7-7---------------------------------------|
E|--------------------------------------------------|
Tap to rate this tab
# A B C D E F G H I J K L M N O P Q R S T U V W X Y Z