Song name
# A B C D E F G H I J K L M N O P Q R S T U V W X Y Z

Pink Floyd - Shine On Pt4 tab

Shine On You Crazy Diamond
				 part 4
			    by Pink Floyd

			       tabbed by
        		   jamesb@nevada.edu



two guitars

-----------------------------------------------------
--13>(15)vvvvvvvvv--(15)>13>11--13>(15)vvvvvvvvvvv---
---5>(7)vvvvvvvvvv---(7)>5>3-----5>(7)vvvvvvvvvvvv---
-----------------------------------------------------
-----------------------------------------------------
-----------------------------------------------------


-----------------------------------------13--15>(16)--15vvvvv\--
--(15)>13--11--13--14--15vvvv---15--16----6---8>(9)----8vvvvv---
---(7)>5----3---5---6---7vvvv----7---8--------------------------
----------------------------------------------------------------
----------------------------------------------------------------
----------------------------------------------------------------


----------------------------------------------------------------------------
--15>(16)-----15-------16>(18)--16>15---13vvv-------------------------------
---7>(8)-------7--------8>(10)---8>7-----5vvv----12>10vvvvvv----------------
--------------------------------------------------------------------4vvvvv--
----------------------------------------------------------------------------
-----------------------------------------------3>(5)>3--1vvvv---1---2vvvvv--






transcribed by Dave Whitehill
for Guitar World
Tap to rate this tab
# A B C D E F G H I J K L M N O P Q R S T U V W X Y Z