Guitaretab - guitar tabs
Song name
# A B C D E F G H I J K L M N O P Q R S T U V W X Y Z

Pink Floyd - The Nile Song tab

Tabbed by: tbarrettl
Email: timmybludolph@yahoo.com

Tuning:
[ Tab from: http://www.guitaretab.com/p/pink-floyd/14728.html ]
e|---------------------------------------------------------------------------|
B|---------------------------------------------------------------------------|
G|---------------------------------------------------------------------------|
D|-11-11-11-11-11-11-11-11---9-9-9-9-9-9-9-9---------------------------------|
A|-11-11-11-11-11-11-11-11---9-9-9-9-9-9-9-9---------------------------------|
E|-9--9--9--9--9--9--9--9----7-7-7-7-7-7-7-7---------------------------------|
                                           4 times

e|---------------------------------------------------------------------------|
B|---------------------------------------------------------------------------|
G|---------------------------------------------------------------------------|
D|8-8-8-8-8-8-8-8-7-7-7-7----------------------------------------------------|
A|8-8-8-8-8-8-8-8-7-7-7-7----------------------------------------------------|
E|6-6-6-6-6-6-6-6-5-5-5-5----------------------------------------------------|
Related for The Nile Song tab
The Nile Song chords by Pink Floyd