Song name
# A B C D E F G H I J K L M N O P Q R S T U V W X Y Z

Pink Floyd - Terminal Frost tab

#----------------------------------PLEASE NOTE---------------------------------#
#This file is the author's own work and represents their interpretation of the #
#song. You may only use this file for private study, scholarship, or research. #
#------------------------------------------------------------------------------##

                     TERMINAL FROST (SAX SOLO - FOR GUITAR)
                            As recorded by Pink Floyd
               (From the 1987 Album A MOMENTARY LASPSE OF REASON)

Music by David Gilmour
Transcribed by Jordan Kokocinski

Gtr I (E A D G B E) - 'Alto Sax'
Gtr II (E A D G B E) - 'Soprano Sax'

  Q=86
  C                 F
 4/4
  Gtr I
  H..        S  S    E     +S   H     +E.  S  S
|-----------------|-----------------------------|
|--------------13-|-15b16r(15)-13----(13)----13-|
|-----------14----|-----------------------14----|
|-----------------|-----------------------------|
|-----------------|-----------------------------|
|-----------------|-----------------------------|


  C                           Bb
   |--3--|                     |--3--|  |-3--|                 |----3-----|
   E  E  E  +Q.    E  S  E.    S  S  S  S S  S  +Q    e  S  S  E  +E      E
|-15-12---------------------|--------------------------------------------15-|
|-------13-(13)------13-15--|-13h14p13------------------------13-(13)b15----|
|-----------------14--------|----------15---15-(15)--12-12h15---------------|
|---------------------------|-----------------------------------------------|
|---------------------------|-----------------------------------------------|
|---------------------------|-----------------------------------------------|


  Bb                                      F
   E  S  S  E  a  S  E       S  E  E. S    Q   E  E  +Q..    S
|---------------------------------17h20p|=17----------------17-|
|-13-------13-13s15---------15h18-------|--------18-(18)-------|
|----15p12----------14b14.5-------------|-----19---------------|
|---------------------------------------|----------------------|
|---------------------------------------|----------------------|
|---------------------------------------|----------------------|


  C                          Bb
   E  E  Q      Q   Q         +W
|----20------------18b20===|=(18)----|
|-20-----------------------|---------|
|-------19b21r=17----------|---------|
|--------------------------|---------|
|--------------------------|---------|
|--------------------------|---------|


                          D
   +H      E.  S  S  E.    H.       S  S  S S
|-(18)r-----------------|---------------------|
|-------------------18--|---------------------|
|----------------17-----|-19-------14p12s10---|
|-------------17--------|---------------------|
|-----------------------|---------------------|
|-----------------------|---------------------|


   E     S H    E T   S   T   T   T
|------------------------------------|
|-------10---------------------------|
|-10b11----7-------------------------|
|-------------------(10)p(7)h(9)p(7)-|
|------------------------------------|
|------------------------------------|
|
| Gtr II
|  W
|------------------------------------|
|------------------------------------|
|------------------------------------|
|------------------------------------|
|------------------------------------|
|------------------------------------|


    S   S    S    S   H.
|-------------------------------------------------|
|-------------------------------------------------|
|-------------------------------------------------|
|-(10)-(9)----------------------------------------|
|----------(10)s(12)------------------------------|
|-------------------------------------------------|
|
|                     |--3--|  |--3--|  |--3---|
|   Q                 E  E  E  E  E  E  E  E  +E
|--------------------------------17-17------------|
|-----------------------------15-------15-17-(17)-|
|--------------------------14---------------------|
|--------------------14h16------------------------|
|-------------------------------------------------|
|-------------------------------------------------|


                C
  Gtr II
   +W            +H     H
|-------------|--------------*|
|-(17)--------|-(17)---------*|
|-------------|--------------*|
|-------------|--------------*|
|-------------|--------------*|
|-------------|--------------*|


Duration Legend
---------------
W - whole; H - half; Q - quarter; E - 8th; S - 16th; T - 32nd; X - 64th; a - acciaccatura
+ - note tied to previous; . - note dotted; .. - note double dotted
Uncapitalized letters represent notes that are staccato (1/2 duration)
Irregular groupings are notated above the duration line
Duration letters will always appear directly above the note/fret number it represents the
duration for.  Duration letters with no fret number below them represent rests.  Multi-
bar rests are notated in the form Wxn, where n is the number of bars to rest for.  Low
melody durations appear below the staff

Tablature Legend
----------------
 h   - hammer-on
 p   - pull-off
 b   - bend
 pb  - pre-bend
 r   - bend release (if no number after the r, then release immediately)
 /\  - slide into or out of (from/to "nowhere")
 s   - legato slide
 S   - shift slide
  - natural harmonic
[n]  - artificial harmonic
n(n) - tapped harmonic
 ~   - vibrato
 tr  - trill
 T   - tap
 TP  - trem. picking
 PM  - palm muting
\n/  - tremolo bar dip; n = amount to dip
 \n  - tremolo bar down
 n/  - tremolo bar up
/n\  - tremolo bar inverted dip
 =   - hold bend; also acts as connecting device for hammers/pulls
 <>  - volume swell (louder/softer)
 x   - on rhythm slash represents muted slash
 o   - on rhythm slash represents single note slash

Misc Legend
-----------
 |  - bar
||  - double bar
||o - repeat start
o|| - repeat end
*|  - double bar (ending)
 :  - bar (freetime)
 $  - Segno
 &  - Coda
Tempo markers -  = BPM(8/16=s8/s16), where s8 = swing 8ths, s16 = swing 16ths


***************************************************************************************
* Generated using Power Tab Editor by Brad Larsen - http://powertab.guitarnetwork.org *
***************************************************************************************
Tap to rate this tab
# A B C D E F G H I J K L M N O P Q R S T U V W X Y Z