Song name
# A B C D E F G H I J K L M N O P Q R S T U V W X Y Z

Pink Floyd - Your Possible Pasts tab

--------------------------------------------------------------------
      Pink Floyd - Your Possible Pasts (The Final Cut - 1983)
--------------------------------------------------------------------
Tabbed by: Alex Brozowski
email: asuforward@gmail.com

Standard tuning

Note: I haven't included the lyrics/chords because that version is fine.

This tab is mainly for the various riffs and solo

Intro: (The first and last verses are played the same way for the chords)

G:                     Am:

e|-----------------     e|----------|
B|-----------------     B|----------|
G|-----------------     G|-----0h2--|
D|-------0h2-------     D|-0h2------|
A|---0h2-----0h2---     A|--------0-|
E|-3-------------3-     E|----------|

*This is approximate. Just play around with the chords, no strumming.

Chorus intro: (first and second times)

e|---------------------|
B|---------------------|
G|---------------------|
D|---------------------|
A|---------------------|
E|-3-2-0---------------|

then when he switches to D, do a little arpeggio thing like this, instead of strumming:

e|-2-----2-----|
B|---3-----3---|
G|-----2-----2-|
D|-------------|
A|-------------|
E|-------------|

Now, for the solo. It's very similar to Gilmour's other solos on The Final Cut album.

This one in particular is very "pinchy," as a lot of the bends are pinched a bit for the harmonic.

e|-12----------------------------15b17-------------------------------|
B|----15--15b17r15p12--17r15p12--------------15b17-15-12-------------|
G|----------------------------------------------------------14-12~~--|
D|-------------------------------------------------------------------|
A|-------------------------------------------------------------------|
E|--------------------------------------7\---------------------------|

e|-12-------------20--17b~~------------------------------------------|
B|----15-15b17-17------------17-15-17~~------------------------------|
G|-------------------------------------------------------------------|
D|-----------------------------------------5+-7+-7b+-----------------|
A|-------------------------------------7+----------------------------|
E|-------------------------------------------------------x-/12-x\----|

e|-------------------------------------------------------------------|
B|-17-17-17-15-17~~--17r15p12-15~~~----------------------------------|
G|-------------------------------------------------------------------|
D|------------------------------------9r7p5--7b9~~--5-7-7b9--7-5-----|
A|---------------------------------------------------------------5~~-|
E|-------------------------------------------------------------------|
                                      ^pinch this whole last part
e|-----------------------|
B|-----------------------|
G|-----------------------|
D|-5-7-7b9~~-------------|
A|-----------------------|
E|-----------------------|

Key:
| /  slide up
| \  slide down
| h  hammer-on
| p  pull-off
| ~  vibrato
| +  harmonic
| x  Mute note

This is my first tab, I think it sounds okay, even though I don't have a great ear for 
things.

This is a great song, and hopefully someone can take my tab and improve upon it. Let me 
if you have any questions.
Tap to rate this tab
# A B C D E F G H I J K L M N O P Q R S T U V W X Y Z