Guitaretab - guitar tabs
Song name
# A B C D E F G H I J K L M N O P Q R S T U V W X Y Z

Pink Floyd - Arnold Layne tab

			     Arnold Layne - Pink Floyd

Tabbed by: Hobbitstyle
Email: zekewhiting@yahoo.com

Tuning: eBGDAE

Guitar
e|--------------------------------|--------------------------------|
B|--------------------------------|--------------------------------|
G|--------------------------------|--------------------------------|
D|--------------------------------|--------------------------------|
A|----------------------------6/--|7---7---7---7---7---7---7---7---|
E|----------------------------4/--|5---5---5---5---5---5---5---5---|

e|--------------------------------|--------------------------------|
B|--------------------------------|--------------------------------|
G|--------------------------------|--------------------------------|
D|--------------------------------|--------------------------------|
A|7---7---7---7---7---7---7---7---|7---7---7---7---7---7---7---7\--|
E|5---5---5---5---5---5---5---5---|5---5---5---5---5---5---5---5\--|

e|--------------------------------|--------------------------------|
B|--------------------------------|--------------------------------|
G|--------------------------------|--------------------------------|
D|--------------------------------|--------------------------------|
A|5---5---5---5---5---5---5---5---|4---4---4---4---4---4---4---4---|
E|3---3---3---3---3---3---3---3---|2---2---2---2---2---2---2---2---|

e|--------------------------------|--------------------------------|
B|--------------------------------|--------------------------------|
G|--------------------------------|----1---------------------------|
D|--------------------------------|--------------------2-----------|
A|3---3---3---3---3---3---3---3---|2-----------2---------------2---|
E|1---1---1---1---1---1---1---1---|0-------------------------------|

e|--------------------------------|--------------------------------|
B|--------------------------------|----2-------2-------2-----------|
G|--------------------1---1-------|--------------------------------|
D|--------2---2---2---2---2---0---|2-------------------------------|
A|--------2---2---2---2---2---0---|0-------------------------------|
E|--------------------------------|--------------------------------|

e|----3---------------2-----------|--------------------------------|
B|0---------------------------3---|----0---------------------------|
G|0---------------2---------------|------------1-------------------|
D|0---------------0---------------|--------------------------------|
A|--------------------------------|2-------------------2---2---2---|
E|3-------------------------------|0-------------------0---0---0---|

e|------------x---------------0---|--------------------------------|
B|------------x---7---5-------2---|--------------------------------|
G|------------x---7---5-------2---|--------------------------------|
D|----------------7---5-------2---|--------------------------------|
A|2---2---2-------5---3-------0---|--------------------------------|
E|0---0---0-----------------------|--------------------------------|

e|--------------------------------|--------------------------------|
B|--------------------------------|--------------------------------|
G|--------------------------------|--------------------------------|
D|--------------------------------|--------------------------------|
A|----------------------------6/--|7---7---7---7---7---7---7---7---|
E|----------------------------4/--|5---5---5---5---5---5---5---5---|

e|--------------------------------|--------------------------------|
B|--------------------------------|--------------------------------|
G|--------------------------------|--------------------------------|
D|--------------------------------|--------------------------------|
A|7---7---7---7---7---7---7---7---|7---7---7---7---7---7---7---7\--|
E|5---5---5---5---5---5---5---5---|5---5---5---5---5---5---5---5\--|

e|--------------------------------|--------------------------------|
B|--------------------------------|--------------------------------|
G|--------------------------------|--------------------------------|
D|--------------------------------|--------------------------------|
A|5---5---5---5---5---5---5---5---|4---4---4---4---4---4---4---4---|
E|3---3---3---3---3---3---3---3---|2---2---2---2---2---2---2---2---|

e|--------------------------------|--------------------------------|
B|--------------------------------|--------------------------------|
G|--------------------------------|----1---------------------------|
D|--------------------------------|--------------------2-----------|
A|3---3---3---3---3---3---3---3---|2-----------2---------------2---|
E|1---1---1---1---1---1---1---1---|0-------------------------------|

e|--------------------------------|--------------------------------|
B|--------------------------------|----2-------2-------2-----------|
G|--------------------1---1-------|--------------------------------|
D|--------2---2---2---2---2---0---|2-------------------------------|
A|--------2---2---2---2---2---0---|0-------------------------------|
E|--------------------------------|--------------------------------|

e|----3---------------2-----------|--------------------------------|
B|0---------------------------3---|----0---------------------------|
G|0---------------2---------------|------------1-------------------|
D|0---------------0---------------|--------------------------------|
A|--------------------------------|2-------------------2---2---2---|
E|3-------------------------------|0-------------------0---0---0---|

e|------------x-------------------|----------------2---2-----------|
B|------------x---7---5-----------|--------0-------3-------3-------|
G|------------x---7---5-----------|0-----------0---2---------------|
D|----------------7---5-----------|0---------------0---------------|
A|2---2---2-------5---3-----------|2-------------------------------|
E|0---0---0-----------------------|3-------------------------------|

e|----0---------------------------|--------------------3-----------|
B|------------2-------------------|----1-----------0---------------|
G|2------------------2---2---0----|0-----------0---0---------------|
D|2-------------------------------|2-----------0---0---------------|
A|0-------------------------------|3---------------2---------------|
E|--------------------------------|----------------3---------------|

e|----2---------------------------|--------------------3-----------|
B|3-----------3-------------------|----1-----------0---------------|
G|2-------------------2-----------|0-------2---0---0---------------|
D|0---------------------------0---|2---------------0---------------|
A|--------------------------------|3---------------2---------------|
E|--------------------------------|----------------3---------------|

e|----2---------------------------|--------0---------------0---0---|
B|------------3-------------------|--------0---------------0---0---|
G|2-------------------2-----------|1-------1---------------1---1---|
D|0-----------------------0-------|2-------2---------------2---2---|
A|--------------------------------|2-------2---------------2---2---|
E|--------------------------------|0-------0---------------0---0---|
                                   Organ arranged for guitar
e|0-------0---------------0---x---|--------------------------------|
B|0-------0---------------0---x---|8---------------6---5-------6---|
G|1-------1---------------1---x---|--------------------------------|
D|2-------2---------------2---x---|--------------------------------|
A|2-------2---------------2---x---|--------------------------------|
E|0-------0---------------0---x---|--------------------------------|

e|--------------------------------|--------------------------------|
B|----8---------------------------|10--------------8---7-------8---|
G|--------------------------------|--------------------------------|
D|--------------------------------|--------------------------------|
A|--------------------------------|--------------------------------|
E|--------------------------------|--------------------------------|
                                   Guitar
e|--------------------------------|2-------2---x---3-------3---x---|
B|----10--------------------------|3-------3---x---0-------0---x---|
G|--------------------------------|2-------2---x---0-------0---x---|
D|--------------------------------|0-------0---x---0-------0---x---|
A|--------------------------------|----------------2-------2---x---|
E|--------------------------------|----------------3-------3---x---|

e|0-------------------------------|--------------------------------|
B|2-------------------------------|--------------------------------|
G|2-------------------------------|--------------------------------|
D|2-------------------------------|--------------------------------|
A|0-------------------------------|----------------------------6/--|
E|--------------------------------|----------------------------4/--|

e|--------------------------------|--------------------------------|
B|--------------------------------|--------------------------------|
G|--------------------------------|--------------------------------|
D|--------------------------------|--------------------------------|
A|7---7---7---7---7---7---7---7---|7---7---7---7---7---7---7---7---|
E|5---5---5---5---5---5---5---5---|5---5---5---5---5---5---5---5---|

e|--------------------------------|--------------------------------|
B|--------------------------------|--------------------------------|
G|--------------------------------|--------------------------------|
D|--------------------------------|--------------------------------|
A|7---7---7---7---7---7---7---7---|7---7---7---7---7---7---7---7---|
E|5---5---5---5---5---5---5---5---|5---5---5---5---5---5---5---5---|
[ Tab from: http://www.guitaretab.com/p/pink-floyd/230301.html ]
e|--------------------------------|--------------------------------|
B|--------------------------------|--------------------------------|
G|--------2+--------------2+------|--------2+--------------2+------|
D|----2+------2+------2+------2+--|----2+------2+------2+------2+--|
A|0+--------------0+--------------|0+--------------2+--------------|
E|--------------------------------|--------------------------------|

e|--------------------------------|--------------------------------|
B|--------------------------------|--------------------------------|
G|--------2+--------------2+------|--------2+--------------2+------|
D|----2+------2+------2+------2+--|----2+------2+------2+------2+--|
A|0+--------------0+--------------|0+--------------0+--------------|
E|--------------------------------|--------------------------------|
  Keyboards arranged for guitar
e|5-------------------------------|--------------------------------|
B|--------------------8-------7---|8-------------------5-------5h7h|
G|--------------------------------|--------------------------------|
D|--------------------------------|--------------------------------|
A|--------------------------------|--------------------------------|
E|--------------------------------|--------------------------------|

e|--------------------------------|------------------------10------|
B|8-------8/10--------------------|--------------------------------|
G|--------------------------------|--------------------------------|
D|--------------------------------|--------------------------------|
A|--------------------------------|--------------------------------|
E|--------------------------------|--------------------------------|

e|9-------10---9-----9----10------|9-------------------------------|
B|----10----------10--------------|----10------8-------7-------5h7p|
G|--------------------------------|--------------------------------|
D|--------------------------------|--------------------------------|
A|--------------------------------|--------------------------------|
E|--------------------------------|--------------------------------|

e|--------------------------------|--------------------------------|
B|5-------3-------2h-3p-2-5---3p2-|3p2h3p2-3/5-----3p--2-----------|
G|--------------------------------|----------------------------2---|
D|--------------------------------|--------------------------------|
A|--------------------------------|--------------------------------|
E|--------------------------------|--------------------------------|
  Guitar
e|--------------------------------|--------------------------------|
B|--------------------------------|--------------------------------|
G|--------------------------------|--------------------------------|
D|--------------------------------|--------------------------------|
A|----------------------------6/--|7---7---7---7---7---7---7---7---|
E|----------------------------4/--|5---5---5---5---5---5---5---5---|

e|--------------------------------|--------------------------------|
B|--------------------------------|--------------------------------|
G|--------------------------------|--------------------------------|
D|--------------------------------|--------------------------------|
A|7---7---7---7---7---7---7---7---|7---7---7---7---7---7---7---7\--|
E|5---5---5---5---5---5---5---5---|5---5---5---5---5---5---5---5\--|

e|--------------------------------|--------------------------------|
B|--------------------------------|--------------------------------|
G|--------------------------------|--------------------------------|
D|--------------------------------|--------------------------------|
A|5---5---5---5---5---5---5---5---|4---4---4---4---4---4---4---4---|
E|3---3---3---3---3---3---3---3---|2---2---2---2---2---2---2---2---|

e|--------------------------------|--------------------------------|
B|--------------------------------|--------------------------------|
G|--------------------------------|----1---------------------------|
D|--------------------------------|--------------------2-----------|
A|3---3---3---3---3---3---3---3---|2-----------2---------------2---|
E|1---1---1---1---1---1---1---1---|0-------------------------------|

e|--------------------------------|--------------------------------|
B|--------------------------------|----2-------2-------2-----------|
G|--------------------1---1-------|--------------------------------|
D|--------2---2---2---2---2---0---|2-------------------------------|
A|--------2---2---2---2---2---0---|0-------------------------------|
E|--------------------------------|--------------------------------|

e|----3---------------2-----------|--------------------------------|
B|0---------------------------3---|----0---------------------------|
G|0---------------2---------------|------------1-------------------|
D|0---------------0---------------|--------------------------------|
A|--------------------------------|2-------------------2---2---2---|
E|3-------------------------------|0-------------------0---0---0---|

e|------------x-------------------|----------------2---2-----------|
B|------------x---7---5-----------|--------0-------3-------3-------|
G|------------x---7---5-----------|0-----------0---2---------------|
D|----------------7---5-----------|0---------------0---------------|
A|2---2---2-------5---3-----------|2-------------------------------|
E|0---0---0-----------------------|3-------------------------------|

e|----0---------------------------|--------------------3-----------|
B|------------2-------------------|----1-----------0---------------|
G|2------------------2---2---0----|0-----------0---0---------------|
D|2-------------------------------|2-----------0---0---------------|
A|0-------------------------------|3---------------2---------------|
E|--------------------------------|----------------3---------------|

e|----2---------------------------|--------------------3-----------|
B|3-----------3-------------------|----1-----------0---------------|
G|2-------------------2-----------|0-------2---0---0---------------|
D|0---------------------------0---|2---------------0---------------|
A|--------------------------------|3---------------2---------------|
E|--------------------------------|----------------3---------------|

e|----2---------------------------|--------0---------------0---0---|
B|------------3-------------------|--------0---------------0---0---|
G|2-------------------2-----------|1-------1---------------1---1---|
D|0-----------------------0-------|2-------2---------------2---2---|
A|--------------------------------|2-------2---------------2---2---|
E|--------------------------------|0-------0---------------0---0---|
                                   Organ arranged for guitar
e|0-------0---------------0---x---|--------------------------------|
B|0-------0---------------0---x---|8---------------6---5-------6---|
G|1-------1---------------1---x---|--------------------------------|
D|2-------2---------------2---x---|--------------------------------|
A|2-------2---------------2---x---|--------------------------------|
E|0-------0---------------0---x---|--------------------------------|

e|--------------------------------|--------------------------------|
B|----8---------------------------|10--------------8---7-------8---|
G|--------------------------------|--------------------------------|
D|--------------------------------|--------------------------------|
A|--------------------------------|--------------------------------|
E|--------------------------------|--------------------------------|
                                   Guitar
e|--------------------------------|2-------2---x---3-------3---x---|
B|----10--------------------------|3-------3---x---0-------0---x---|
G|--------------------------------|2-------2---x---0-------0---x---|
D|--------------------------------|0-------0---x---0-------0---x---|
A|--------------------------------|----------------2-------2---x---|
E|--------------------------------|----------------3-------3---x---|

e|0-------------------------------|--------------------------------|
B|2-------------------------------|--------------------------------|
G|2-------------------------------|--------------------------------|
D|2-------------------------------|--------------------------------|
A|0-------------------------------|----------------------------6/--|
E|--------------------------------|----------------------------4/--|

e|--------------------------------|--------------------------------|
B|--------------------------------|--------------------------------|
G|--------------------------------|--------------------------------|
D|--------------------------------|--------------------------------|
A|7---7---7---7---7---7---7---7---|7---7---7---7---7---7---7---7---|
E|5---5---5---5---5---5---5---5---|5---5---5---5---5---5---5---5---|

e|--------------------------------|--------------------------------|
B|--------------------------------|--------------------------------|
G|--------------------------------|--------------------------------|
D|--------------------------------|--------------------------------|
A|7---7---7---7---7---7---7---7---|7---7---7---7---7---7---7---7---|
E|5---5---5---5---5---5---5---5---|5---5---5---5---5---5---5---5---|
  
e|--------------------------------|--------------------------------|
B|--------------------------------|--------------------------------|
G|--------------------------------|--------------------------------|
D|--------------------------------|--------------------------------|
A|7+--7+--7+--7+--7+--7+--7+--7+--|7+--7+--7+--7+--7+--7+--7+--7+--|
E|5+--5+--5+--5+--5+--5+--5+--5+--|5+--5+--5+--5+--5+--5+--5+--5+--|

e|5---5*------3-----------3*------|0---0---0---0---5---------------|
B|5---5*------3-----------3*------|0---0---0---0---5---------------|
G|6---6*------4-----------4*------|1---1---1---1---6---------------|
D|7---7*------5-----------5*------|2---2---2---2---7---------------|
A|7---7*------5-----------5*------|2---2---2---2---7---------------|
E|5---5*------3-----------3*------|0---0---0---0---5---------------|

Hope you enjoyed!

************************************

| /   slide up
| \   slide down
| h   hammer-on
| p   pull-off
| *   Sticcato
| +   Palm mute
| x   Mute note

************************************
Related for Arnold Layne tab
Arnold Layne chords by Pink Floyd