Song name
# A B C D E F G H I J K L M N O P Q R S T U V W X Y Z

Pink Floyd - The Narrow Way Part 2 tab

Rythme 1: 1x
-3/7-0------------------------|
-------7/9-10--9-9-9-7-\1-1-2-|
------------------------------|
------------------------------|
------------------------------|
------------------------------|

Rythme 2: 3x
0-0-0-7-0------------------------|
----------7/9-10--9-9-9-7-\1-1-2-|
---------------------------------|
---------------------------------|
---------------------------------|
---------------------------------|

Rythme 3:
0-0-0-------------------------4-4-4-5--h4\1-0-|
------7-\3-3-5--1-1-1-2--h1h0-----------------|
----------------------------------------------|
----------------------------------------------|
----------------------------------------------|
----------------------------------------------|

and repeat:
-Rythme 2: 4x
-Rythme 3: 1x

h=hammer
/ or \=slash

by cacodemon
Tap to rate this tab
 
# A B C D E F G H I J K L M N O P Q R S T U V W X Y Z