Song name
# A B C D E F G H I J K L M N O P Q R S T U V W X Y Z

Pink Floyd - The Fletcher Memorial Home tab

                      The Fletcher Memorial Home(solo)

sounds best with distortion & chorus



e|---------------------------------------------------------------|
B|---------------------------------------------------------------|
G|----------------------------------------------------------12---|
D|---------------------------------------------------------------|
A|---------------------------------------------------------------|
E|---------------------------------------------------------------|
                           
e|---------------------------------------------------------------|
B|-/15-----------------------------------------------------------|
G|----------------------14b16r14h12p9----------2b4r2b4-----------|
D|-------------------------------------------2-------------------|
A|---------------------------------------------------------------|
E|---------------------------------------------------------------|
                           pinch.h on this bend^
e|-------------------------------------------------------15------|
B|----------------/15-------------12-15--15b17--15b17------------|
G|--------------12-----------------------------------------------|
D|---------------------------------------------------------------|
A|---------------------------------------------------------------|
E|---x-12\-------------------------------------------------------|

e|---------------------------------------------------------------|
B|-15b17---------------------------------------------------------|
G|---------------------------------------------------------------|
D|--------------------------5-----7b9---7b9------5--7------------|
A|-----------------------7---------------------7-----------------|
E|--------------x\-----------------------------------------------|

e|---------------------------------------------------------------|
B|---------------------------------------------------------------|
G|----------------------------------------------12h14-14b16------|
D|-7b9~~~~~~~7p5--7--------------------------14------------------|
A|---------------------------------------------------------------|
E|-----------------------/12--------7\---------------------------|

e|---------------------------------------------------------------|
B|---------------------------------------------------------------|
G|----14-------12--------14p12---14b16-----14----------12--------|
D|---------------------------------------------------------------|
A|---------------------------------------------------------------|
E|---------------------------------------------------------------|

e|--------------------------------14-15-----17-----15------------|
B|--------------------------12-15--------------------------------|
G|----------12-11-12---------------------------------------------|
D|---------------------------------------------------------------|
A|---------------------------------------------------------------|
E|---------------------------------------------------------------|

e|---------------------------------------------------------------|
B|---------------------------------------------------------------|
G|--11b12r11-----------------------------------------------------|
D|---------------------------------------------------------------|
A|---------------------------------------------------------------|
E|---------------------------------------------------------------|



| /  slide up
| \  slide down
| h  hammer-on
| p  pull-off
| ~  vibrato
| +  harmonic
| x  Mute note
Tap to rate this tab
# A B C D E F G H I J K L M N O P Q R S T U V W X Y Z