Song name
# A B C D E F G H I J K L M N O P Q R S T U V W X Y Z

Pink Floyd - Not Now John tab

Pink Floyd
Not Now John

!For info scroll the page to the down!

---
Solo

e|------------------------------15-----------------------------------------|
B|--------17-b-18.5-------17b18----17b18r17--------------------------------|
G|--19p16-----------19p16-------------------19p16-19--(16)-{19tm19.5tm18}--|
D|-------------------------------------------------------------------------|
A|-------------------------------------------------------------------------|
E|-------------------------------------------------------------------------|

e|-------------------------------------------------------------------------|
B|-------------------------------------------------------------------------|
G|-{16tm17tm15}-{14tm16tm14}-12---------X-X--12-12-12-14-12--\\\\---16h19--|
D|-------------------------------h14~~--X-14-12-14-12-12-12--\\\\----------|
A|-------------------------------------------------------------------------|
E|-------------------------------------------------------------------------|

e|-----------------------15-15/17-15---------------------------------------|
B|--------------------17-------------17p15h17-15b16r15-17------------------|
G|-19p16-{19tm18tm19}-------------------------------------------19p16-19~~-|
D|-------------------------------------------------------------------------|
A|-------------------------------------------------------------------------|
E|-------------------------------------------------------------------------|


e|-------------------------------------------------------------------------|
B|---17--------------------------------------------------------------------|
G|19-19-19-16-18-14-16-12-14-10-10/12~~~--12-12-12-12----------------------|
D|----------------------------------------14-12h14-14----10/12~~-12\9/14~~-|
A|-------------------------------------------------------------------------|
E|-------------------------------------------------------------------------|

e|-------------------------------------------------------------------------|
B|---------------------------------------------------------17--------------|
G|-----------------------------------------16h19-19--16h19----19~~-19------|
D|-10/16~~-13/17~~-14h16h17p16p14-16/19~~----------------------------------|
A|-------------------------------------------------------------------------|
E|-------------------------------------------------------------------------|

e|-------------------------------------------------------------------------|
B|-------------------------------------------------------------------------|
G|-16-b-17--16-16-19—16h19-19-16-b-17--14----14-12/14-14\12-\-9~~----------|
D|----------------------------------------17-----------------------7-7h9---|
A|-------------------------------------------------------------------------|
E|-------------------------------------------------------------------------|

e|-------------------------------------------------------------------------|
B|-------------------------------------------------------------------------|
G|-------------------------------------------------------------------------|
D|-7h9-9b10-9-7------------------------------------------------------------|
A|--------------10p7-------------------------------------------------------|
E|-------------------------------------------------------------------------|


---
Info
Band      - Pink Floyd
Album     - Final Cut 1982 year
Song name – Not Now John (track number 11)
Duration  - 0:00:50 (Solo only)
Composers – Pink Floyd
Genre     - Ace Rock

---
What do we need?
1.	Electric guitar
2.	Distortion effect for the 1st guitar
3.	You need to hear the song for few times to understand the rhythm and play clear rhythmic
4.	To see the tab correctly you need Microsoft Office Word (click the “Web
 Layout View” button
      on the lower left corner of the monitor!)

---
Symbol meanings

7b8r7 =bend the string from 7 to 8 and return to 7
7b7.5 =Half bend
7h8p7 =hummer on from 7 to 8 than pull off
7/8\7 =slide up from 7 to 8 than slide down to 7
PH	=Pinch Harmonics
LR	=:et Ring the note
()	=ghost note, chord or world (it’s almost unlistenable)
{19tm20tm18} = pull tremolo (whammy) bar so the 19th fret will play
   the 20th sound and than push it down to the 18th sound

---
Tab Writer

This Tab was written by Vigen Harutyunyan.
Mail – vigenharutyunyan@yahoo.com
Web  -

Please don’t publish this tab without my permission. Don’t modify this tab.
Don’t publish this tab from your name. (I hope you got what I mean and hope
that you won’t do that without my permission)!!!

---
Special Thanks

Special thanks to me (Vigen) and of course to Muse for writing and singing this song.
Tap to rate this tab
# A B C D E F G H I J K L M N O P Q R S T U V W X Y Z