Song name
# A B C D E F G H I J K L M N O P Q R S T U V W X Y Z

Pink Floyd - One Of My Turns tab

Author/Artist: Pink Floyd
Title: One of my turns
Album: is there anybody out there the wall live
Transcribed by: pinkfloydfan1
Email: doggydj2004@aol.com

heres another tab i tabbed this by ear so it may not be accurate
this is from the live 1980-81 album not the studio version

-----------------------------------8/13-15151515-17p13---|
---------------------------10----------------------------|
-7b8r7----7-10b12r10--7h10----7h10-----------------------|
-------7h9-----------------------------------------------|
---------------------------------------------------------|
---------------------------------------------------------|


----------------------1313-13-131313-15------------------|
----------------------1313-13h151313h15--------13b15r13--|
-7b8r7----7-------------------------------12h13----------|
-------7h9--10b12r10-------------------------------------|
---------------------------------------------------------|
---------------------------------------------------------|
Tap to rate this tab
 
# A B C D E F G H I J K L M N O P Q R S T U V W X Y Z