Song name
# A B C D E F G H I J K L M N O P Q R S T U V W X Y Z

Pink Floyd - Mother tab

This solo is about feel, listen to it a couple times to get it.

Here is a video I did explaining how to play it part by part.

http://www.youtube.com/watch?v=A9uMZzLATpg&feature=youtu.be

Thanks hope this helps you nail it!

PART A

|---------------------------------|
|-----13b15--15-13-12-13----------|
|--12-----------------------------|
|------------------------14-12-14-|
|---------------------------------|
|---------------------------------|

PART B

|---------------|
|---------------|
|-----5-4-5-4---|
|-7----------5--|
|---------------|
|---------------|

PART C

|---------------|
|---------------|
|---------------|
|--5-3-2-3\5--3-|
|---------------|
|---------------|

PART D
|--------------------------------------|
|------------------------13~-----------|
|--12-14-14b16--16-12-14---------------|
|-----------------------------14-12-14-|
|--------------------------------------|
|--------------------------------------|

PART E
|--------10-12/14--12p-10~------8h-10/12--10-8~-|
|-----10---------------------8------------------|
|--11----------------------9--------------------|
|-----------------------------------------------|
|-----------------------------------------------|
|-----------------------------------------------|

PART F (way one)
|--8-7-8-7------------|
|----------8----------|
|------------9-7------|
|----------------9-7~-|
|---------------------|
|---------------------|

PART F (way two)

|--8-7-8-7-----------|
|----------8---------|
|------------7-5-4---|
|------------------5-|
|--------------------|
|--------------------|

Dakota Plays Guitar-----2012

TAB MADE WITH
http://www.pompidula.com/index/guitar/Flash_Tab_writer_big.asp
Tap to rate this tab
# A B C D E F G H I J K L M N O P Q R S T U V W X Y Z