Song name
# A B C D E F G H I J K L M N O P Q R S T U V W X Y Z

Pink Floyd - The Fletcher Memorial Home tab

e -----------------------------------------------------|
B ------13b15==~~--------------------------------------|
G ---12---------------[16]r14p12-----------------------|
D -------------------------------14~~\----7b9-(9)-\----|
A -----------------------------------------------------|
E -----------------------------------------------------|

e ------------------------------------------15---------|
B ------13b15==~~------12-15-15b17~~--15b17----15b17~~-|
G ---12------------------------------------------------|
D -----------------------------------------------------|
A -----------------------------------------------------|
E -----------------------------------------------------|

e -----------------------------------------------------|
B -----------------------------------------------------|
G -----------------------------------------------------|
D -----5--7b9~~\/(9)-------5-7-7b9~~\/(9)-(9)r7p5-7~~--|
A ---7-------------------7-----------------------------|
E -----------------------------------------------------|

e -----------------------------------------------------|
B -----8--10b12~~-10--8~----10p8-10b12~~-10--8~--------|
G ---9-------------------------------------------------|
D -----------------------------------------------------|
A -----------------------------------------------------|
E -----------------------------------------------------|

e ------------7-10-------------------------------------|
B ---8p7-8-10-------10b12-10--8~~---7b8r7==~~----------|
G -----------------------------------------------------|
D -----------------------------------------------------|
A -----------------------------------------------------|
E -----------------------------------------------------|
Tap to rate this tab
 
# A B C D E F G H I J K L M N O P Q R S T U V W X Y Z