Song name
# A B C D E F G H I J K L M N O P Q R S T U V W X Y Z

Pink Floyd - The Show Must Go On tab

-------------------------------------------------------------------------------
                    The Show Must Go On - Pink Floyd
-------------------------------------------------------------------------------
Tabbed by:Caleb99


Tuning: Standard

When you see * above one of the C chords, its there for me to point 
out its a quicker switch than the other
chords, You should hear the changes in the song.



The strumming is very simple and easy to follow.

    Aaaaaaaahhhh   Oooooohhhhhh   Aaaahhhhhhhh
e|--3--------------0--------------3-------------0----------------------------|
B|--0--------------1--------------0-------------1----------------------------|
G|--0--------------0--------------0-------------0----------------------------|
D|--0--------------2--------------0-------------2----------------------------|
A|--2--------------3--------------2-------------3----------------------------|
E|--3-----------------------------3------------------------------------------|
                                  Ooh Ma        Ooh Pa Must The Show Go On
e|--3--------------0--------------2-------------0----------------------------|
B|--0--------------1--------------3-------------1----------------------------|
G|--0--------------0--------------2-------------0----------------------------|
D|--0--------------2--------------0-------------2----------------------------|
A|--2--------------3----------------------------3----------------------------|
E|--3------------------------------------------------------------------------|
                                  Ooh                     Pa (take me home)
e|--3--------------3---------3----10----10----10----10----10---10---10---10--|
B|--0--------------0--------3--------10----10----10----10----9----9----9----9|
G|--0--------------0-------0--0----------------------------------------------|
D|--0--------------0---------------------------------------------------------|
A|--2--------------x---------------------------------------------------------|
E|--3--------------3---------------------------------------------------------|
    Ooh                     Ma (let me go)         There Must Be Some Mistake I
e|--10----10----10----10----10---10---10---10------0-------------------------|
B|-----10----10----10----10----9----9----9----9----0-------------------------|
G|-------------------------------------------------0-------------------------|
D|-------------------------------------------------2-------------------------|
A|-------------------------------------------------3-------------------------|
E|---------------------------------------------------------------------------|
    Didn't Mean To Let Them Take Away My Soul Am I To Old? Is It Too Late? 
e|--------------------------------------------------------------------3------|
B|--------------------------------------------------------------------0------|
G|--------------------------------------------------------------------0------|
D|--------------------------------------------------------------------0------|
A|--------------------------------------------------------------------2------|
E|--------------------------------------------------------------------3------|
    *                              Ooh Ma        Ooh Pa Where Has The Feeling Gone
e|--0--------------3---------------2-------------0---------------------------|
B|--1--------------0---------------3-------------1---------------------------|
G|--0--------------0---------------2-------------0---------------------------|
D|--2--------------0---------------0-------------2---------------------------|
A|--3--------------2-----------------------------3---------------------------|
E|-----------------3---------------------------------------------------------|
    Ooh Ma         Ooh Pa Will I Remember The Songs
e|--2--------------0---------------------------------------------------------|
B|--3--------------1---------------------------------------------------------|
G|--2--------------0---------------------------------------------------------|
D|--0--------------2---------------------------------------------------------|
A|-----------------3---------------------------------------------------------|
E|---------------------------------------------------------------------------|
    Ooh            Ah          THE SHOW MUST GO ON!!
e|--2--------------0---------------------------------------------------------|
B|--3--------------1---------------------------------------------------------|
G|--2--------------0---------------------------------------------------------|
D|--0--------------2---------------------------------------------------------|
A|-----------------3---------------------------------------------------------|
E|---------------------------------------------------------------------------|
                  /|\
                   | This is a single strum

************************************

| /   slide up
| \   slide down
| h   hammer-on
| p   pull-off
| ~   vibrato
| +   harmonic
| x   Mute note
| b   Bend
| pb  Pre-bend
| br  Bend release
| pbr Pre-bend release
| brb Bend release bend

************************************
Tap to rate this tab
# A B C D E F G H I J K L M N O P Q R S T U V W X Y Z