Song name
# A B C D E F G H I J K L M N O P Q R S T U V W X Y Z

Pink Floyd - Wish You Were Here tab

E-----------------------------------------------------------------|
B-------------3---5-------3---------------------------------------|
G----2---4-----------4--------4---2---0---------------------------|
D------------------------------------------0------------0---0-----|
A------------------------------------------------0---2------------|
E-----------------------------------------------------------------|

-----3---/5---3----------------------------|
-----3---/5---3----------------------------|
--------------------9---7---9---7---4---4--|
--------------------9---7---9---7---5---5--|
-------------------------------------------|
-------------------------------------------|


E---------------------------------------------------------------|
B---------------------------------------------------------------|
G-----------7-----9b-----7---9---7------------7--9--------------|
D--7---9--------------------------------7---9----------9b---7---|
A---------------------------------------------------------------|
E---------------------------------------------------------------|

----------------------------------------------------------|
----------------------------------------------------------|
-----------7--------9---9b---9---7---9--7-----------------|
----7---9------9------------------------------7---9b---7--|
----------------------------------------------------------|
----------------------------------------------------------|
Tap to rate this tab
 
# A B C D E F G H I J K L M N O P Q R S T U V W X Y Z