Song name
# A B C D E F G H I J K L M N O P Q R S T U V W X Y Z

Pink Floyd - One Of The Few tab

One Of The Few

Riff 1
e|--------------------------------------------------|
B|---11---11-----10---10------8----8----6\3~~-3-----|
G|--------------------------------------------------|
D|-0----0------0----0------0----0----0--------------|
A|--------------------------------------------------|
E|--------------------------------------------------|

Riff 2
e|--------------------------------------------------|
B|---13---13-----11---11------8----8----6\3~~--3----|
G|--------------------------------------------------|
D|-0----0------0----0------0----0----0--------------|
A|--------------------------------------------------|
E|--------------------------------------------------|

Intro:  Riff 1,  Riff 2.

(Riff 1)
When you're one of the few to land on your feet,
what do you do to make ends meet?  Teach.

(Riff 2)
Make 'em mad, make 'em sad, make 'em add two and two.

(Riff 1)
Oh make 'em me, make 'em you, make 'em do what you want them to.

(Riff 2)
Make them laugh, make 'em cry, make 'em lay down and die.
Tap to rate this tab
# A B C D E F G H I J K L M N O P Q R S T U V W X Y Z