Song name
# A B C D E F G H I J K L M N O P Q R S T U V W X Y Z

Pink Floyd - In The Flesh tab

Intro(Chords):

E  D  G  A Bm-Cm  
G  D  E

D  E  G7/Dm  E
D  E  G7/Dm  G

A  A  E  A E-D    Bm  A  E
A  A  E  A E-D    Bm  A  E
A  A  E  A E-Bm   D   A  E  
C#m  E  Bm  A  E...

Intro (Tab):

|-------------------------------------------------------------------------------|
|-------------------------------------------------------------------------------|
|--------------------------------------------12/--7-----7~---7/--9--------------|
|--------------------------------------------12/--7-----7~---7/--9--------------|
|----------------------0----2----3~~---------10/--5-----5~---5/--7--------------|
|--0--0----2~~----3-------------------------------------------------------------|


|------------0---------------0--------------------------------------------------|
|---------0-----3---------0-----3~----------------------------------------------|
|----2b4------------2b4---------------2b4r2---0---------------------------------|
|------------------------------------------------2--0----------------------2~---|
|------------------------------------------------------21-0--------------------|
|---------------------------------------------------------------3b4r3---0-------|



|-------0~~--------0~~--------x~~--------0~~---|
|-------3~~--------5~~--------6~~--------5~~---|
|-------2~~--------4~~--------5~~--------4~~---|
|-------0~~--------0~~--------0~~--------0~~---|
|----------------------------------------------|
|----------------------------------------------|


|-------0~~--------0~~--------x~~-------x~~----|
|-------3~~--------5~~--------6~~-------8~~----|
|-------2~~--------4~~--------5~~-------7~~----|
|-------0~~--------0~~--------0~~-------0~~----|
|----------------------------------------------|
|----------------------------------------------|










Main Riff
|-----------------------------------------------------------------|
|-----------------------------------------------------------------|
|-----------------------------------------------------------------|          2x(Times)
|------------------------------------------------2----------------|
|--02b4--2--0------------------4b5--4--2--------0----------------|
|----------------2b3---2------------------------------------------|

|--------------------------------------------------------------------------|
|--------------------------------------------------------------------------|
|--------------------------------------------------------------------------|
|--------------------------------------------------------------------------|
|--2b4--20---1-2---------4b5--4--2----3-4--------5b7---5--4---------------|
|--------------------------------------------------------------0x-x-x-----|


A                              D
So ya thought ya might like to go to the show
A
To feel the warm thrill of confusion
     D
That space cadet glow


A
Tell me is something eluding you sunshine?
Bm                     E7
Is this not what you expected to see?
       C#m
If you wanna find out what's behind these cold eyes?
       E
You'll just have to claw your way through this disguise


Here you do some picking...(during verse)
             A                           D
|----------0-----------0----------------2------------2---------|
|-------2----2-------2----2----------3-----3-------3---3-------|
|----2---------2---2--------2-----2----------2---2-------2-----|  2x(Times)
|--2-------------2--------------0--------------0---------------|
|--------------------------------------------------------------|
|--------------------------------------------------------------|

             A                  Bm
|----------0-----------0----------------2------------2-----------|
|-------2----2-------2----2----------3-----3-------3----3--------|
|----2---------2---2--------2-----4----------4---4---------4-----|
|--2-------------2--------------4--------------4-----------------|
|----------------------------------------------------------------|
|----------------------------------------------------------------|

             C#m                  E
|--------4-----------4-------------0-------------0-----------|
|------5---5-------5----5--------0----0--------0----0--------|
|----6-------6---6--------6----1--------1----1--------1------|
|--6-----------6-------------2------------2------------------|
|------------------------------------------------------------|
|------------------------------------------------------------|
Outro (chords)

A  A  E  A E-D    Bm  A  E
A  A  E  A E-D    Bm  A  E
A  A  E  A E-Bm   D   A  E  
C#m  E  Bm  A  E...A..


Outro (tab)

Main Riff
|-----------------------------------------------------------------|
|-----------------------------------------------------------------|
|-----------------------------------------------------------------|          2x(Times)
|------------------------------------------------2----------------|
|--02b4--2--0------------------4b5--4--2--------0----------------|
|----------------2b3---2------------------------------------------|

|--------------------------------------------------------------------------|
|--------------------------------------------------------------------------|
|--------------------------------------------------------------------------|
|--------------------------------------------------------------------------|
|--2b4--20---1-2---------4b5--4--2----3-4--------5b7---5--4---------------|
|--------------------------------------------------------------0x-x-x-----|
Tap to rate this tab
# A B C D E F G H I J K L M N O P Q R S T U V W X Y Z