Song name
# A B C D E F G H I J K L M N O P Q R S T U V W X Y Z

Pink Floyd - Run Like Hell tab

Delay: 380 (DROP D)

Intro:
E|-------------------------------------------------------------------------||
B|-------------------------------------------------------------------------||
G|-------------------------------------------------------------------------||
D|-------------------------------------------------------------------------||
A|--------19---18---17---16---15---14---13---------------------------------||
E|--------19---18---17---16---15---14---13---12/---------------------------||
              Full P.M.

Intro Riff:
E|-------------------------------------------------------------------------||
B|-------------------------------------------------------------------------||
G|-------------------------------------------------------------------------||
D|--0-0-0-0-0-------0-0-0-0-0--------0-0-0-0-0-----3p0h3p0----0-0-0-0-0-0--||
A|---5-5-5-5-----5/--5-5-5-5------5/--5-5-5-5--3-5-------------5-5-5-5-5---||
E|-------------------------------------------------------------------------||



Intro Triads:
      D         A/D      G/D      D        A/D     G/D      A/D        D
E|-10--10-10-----9-----7--7-7-----5------5--5-5----3-----0--0-0-0-----2-2--||
B|-10--10-10----10-----8--8-8-----7------5--5-5----3-----2--2-2-2-----3-3--||
G|-11--11-11-----9-----7--7-7-----7------6--6-6----4-----2--2-2-2-----2-2--||
D|-------------------------------------------------------------------------||
A|-------------------------------------------------------------------------||   
E|-------------------------------------------------------------------------||

   

    Run, run, run, run        run, run, run, run
E|-------------------------------------------------------------------||
B|-------------------------------------------------------------------||
G|-------------------------------------------------------------------||
D|---3----3----3----3-----------7----7----7----7---------------------||
A|---3----3----3----3-----------7----7----7----7---------------------||
E|---3----3----3----3-----------7----7----7----7---------------------||


   Run, run, run, run   run, run, run, run
E|-------------------------------------------------------------------||
B|-------------------------------------------------------------------||
G|-------------------------------------------------------------------||
D|--0----0----0----0-----0----0----0----0----------------------------||
A|--0----0----0----0-----0----0----0----0----------------------------||
E|--0----0----0----0-----0----0----0----0----------------------------||



Chord Riffs: Play these after playing the verse chords (example with E*)
Play the same riff for all chords. 
But remember as the chord changes the starting note also changes.
 
E|-------------------------------------------------------------------||
B|-------------------------------------------------------------------||
G|-------------------------------------------------------------------||
D|-----------------2------------2-2----------------------------------||
A|------2h-----5----------5-5----------------------------------------||
E|-------------------------------------------------------------------||
   E*: 222xxx
   F*: 333xxx
   C*: 10-10-10-x-x-x 
Bsus*: 999xxx 

          E*
You better make your face up in
Your favourite disguise
          F*
With your button down lips and your
Roller blind eyes
          E*
With your empty smile
And your hungry heart
         C*
Feel the bile rising from your guilty past
          Bsus*
With your nerves in tatters
When the cockleshell shatters
        E*
And the hammers batter
Down your door
           D        
You better run

Intro Riff:
Intro Triads: x1

Run, run,  run, run,   run, run, run, run
Run, run, run, run, run, run, run, run

          E*
You better run all day
And run all night
              F*
And keep your dirty feelings
Deep inside. And if you're
E*
Taking your girlfriend
Out tonight,
           C*
You better park the car
Well out of sight
             Bsus*
'Cos if they catch you in the backseat
Trying to pick her locks
              E*
They're gonna send you back to mother
In a cardboard box
           D
You better run.

Piano Synth
Outro Triads:
        D         A/D      G/D      D        A/D      G/D             D
E|--10--10-10------9-----7--7-7-----5------5--5-5-----3--3-3-3-3-----2-----||
B|--10--10-10-----10-----8--8-8-----7------5--5-5-----3--3-3-3-3-----3-----||
G|--11--11-11------9-----7--7-7-----7------6--6-6-----4--4-4-4-4-----2-----||
D|-------------------------------------------------------5-5-5-5-----0-----||
A|-------------------------------------------------------------------------||   
E|-------------------------------------------------------------------------||

Run, Run, Run...
Tap to rate this tab
# A B C D E F G H I J K L M N O P Q R S T U V W X Y Z