Song name
# A B C D E F G H I J K L M N O P Q R S T U V W X Y Z

Pink Floyd - Coming Back To Life tab

-------------------------------------------------------------------------------
                             SONG NAME - Band Name
-------------------------------------------------------------------------------
Tabbed by:brett endsley
E-mail:frogyyy2@gmail.com

Tuning:e a d g b e , standard

the beginning has slight bend at the end when the notes ring out.also using chorus 
flange or some echo makes this song sound more like the album. the bends are hardly noticeable.

e|---------------------------------------------------------------------------|
B|---------------------------------------------------------------------------|
G|------7-7b-9-9----5-7-7b-----5-7-5-7bp5--7p5-7b-9-5-7-5-5/7----------------|
D|--5-5-----------5--------5-5-----------7-----------------------------------|
A|---------------------------------------------------------------------------|
E|---------------------------------------------------------------------------|

e|---------------------------------10-12-12----10\12-12----------------------|
B|---------------------------------------------------------------------------|
G|-7-5-4---------------------12-12----------12-------------------------------|
D|------5\7/5----------------------------------------------------------------|
A|-----------5\7-5-3---------------------------------------------------------|
E|---------------------------------------------------------------------------|

e|---------------------------------------------------------------------------|
B|-------14-15-14-17-15-14-17b------16-14------------------------------------|
G|-12\14----------------------14----16-14-14---9-5h7p5\7---------------------|
D|----------------------------------------14---------------------------------|
A|---------------------------------------------------------------------------|
E|---------------------------------------------------------------------------|

e|---------------------------------------------------------------------------|
B|--------------------------15b--------15--15---15-----15--------------------|
G|---7-5-4-----------------------12\14---16--16---16-14----------------------|
D|--------5\7/5-----------7--------------------------------------------------|
A|-------------5\7/5/3-5h7---------------------------------------------------|
E|---------------------------------------------------------------------------|

e|---------------------------------------------------------------------------|
B|------------------10-10-7-7h10---------------------------------------------|
G|----5-7b-7b-7b-7b-------------9p7h9-7-5-5-7-5-7b-7b-7-5--------------------|
D|--7------------------------------------------------------------------------|
A|---------------------------------------------------------------------------|
E|---------------------------------------------------------------------------|

Where were you when I was burned and broken

While the days slipped by from my window watching

Where were you when I was hurt and I was helpless

Because the things you say and the things you do surround me

While you were hanging yourself on someone else's words

Dying to believe in what you heard

I was staring straight into the shining sun
e|---------------------------------------------------------------------------|
B|---------------------------------------------------------------------------|
G|-------------------------------------9---9---9-----------------------------|
D|-------------------------------------9-x-9-x-9-x---------------------------|
A|-------------------------------------7-x-7-x-7-x---------------------------|
E|---------------------------------------------------------------------------|
  Lost in thought and lost in time
repeat this with each phrase.
e|---------------------------------------------------------------------------|
B|---------------------------------------------------------------------------|
G|-9---9---9---9---9---9--------7---7---7------------------------------------|
D|-9-x-9-x-9-x-9-x-9-x-9-x------7-x-7-x-7------------------------------------|
A|-7-x-7-x-7-x-7-x-7-x-7-x-x7x6x5-x-5-x-5------------------------------------|
E|---------------------------------------------------------------------------|

:::solo:::
e|---------------------------------------------------------------------------|
B|------8----------5-8-10b-10-8------------8-5-------------------------------|
G|--5-7b--7p5--5-7--------------9p7h9-5-7b----7p5-5--7-x-5-x-7-7-x-7-5-7b----|
D|-7---------7-----------------------------------7---------------------------|
A|---------------------------------------------------------------------------|
E|---------------------------------------------------------------------------|

e|------------------------------16-------16b-16b-16-14-----------------------|
B|-8-5----------18-16-14-12b--15-------15-------------16-14\0----------------|
G|----7-5---7p5\18-16-14-12b------14-16--------------------------------------|
D|--------7------------------------------------------------------------------|
A|---------------------------------------------------------------------------|
E|---------------------------------------------------------------------------|

e|-0/17-17-19b-19-17-15---------------------|
B|----------------------16-14-x16x16x16p14--|
G|------------------------------------------|
D|------------------------------------------|
A|------------------------------------------|
E|------------------------------------------|

repeat the same as the rest of the phrases
I took a heavenly ride through our silence
I knew the waiting had begun
And headed straight..into the shining sun

exiting solo
e|----------8-10b-12------------------------16-16-16-14-14-19b-19-17-19------|
B|------8-10---------------------5-8-5------16-16-16-14-14-------------------|
G|-7-10----------------7b-7b-5-7------7-5-5----------------------------------|
D|---------------------------------------------------------------------------|
A|---------------------------------------------------------------------------|
E|---------------------------------------------------------------------------|

e|-19-17---------------------------------------------------------------------|
B|-------18-16------------------14h16b-16p14--------16-14--------------------|
G|-------------18-16-14/16-14h16------------16p14h16------7b-5--5------------|
D|-------------------------------------------------------------7-------------|
A|---------------------------------------------------------------------------|
E|---------------------------------------------------------------------------|

e|-------------------------------------------------------------------------------------|
B|---8p5--5----------------------------------------------------------------------------|
G|-7-----7--7-5/7\5--------------------------------------------------------------------|
D|-------------------------------------------------------------------------------------|
A|-------------------------------------------------------------------------------------|
E|-------------------------------------------------------------------------------------|




i tabbed this from around 6-10 am so i hope its right. also its like my 4th ear tabbed 
song and the 2nd i've posted on ug thanks!
************************************

| /   slide up
| \   slide down
| h   hammer-on
| p   pull-off
| ~   vibrato
| +   harmonic
| x   Mute note
| b   Bend
| pb  Pre-bend
| br  Bend release
| pbr Pre-bend release
| brb Bend release bend

************************************
Tap to rate this tab
# A B C D E F G H I J K L M N O P Q R S T U V W X Y Z