Song name
# A B C D E F G H I J K L M N O P Q R S T U V W X Y Z

Pink Floyd - Final Cut tab

this is the solo to one of my favorite songs, the final cut by pink Floyd.

key

b= bend
/= slide

e|-----------20-----17-------------------------------------------------------|
B|---18b------------------------18---18b----------18---17--15--------15--17--|
G|-------------------------17-----------------------------------17-----------|
D|---------------------------------------------------------------------------|
A|---------------------------------------------------------------------------|
E|---------------------------------------------------------------------------|


e|---------------------------------------------------------------------------|
B|---17b-------15---15-------------------------------------------------------|
G|----------------------17b---14-14-----------12b--12b/10/0------------------|
D|----------------------------------------12---------------------------------|
A|---------------------------------------------------------------------------|
E|---------------------------------------------------------------------------|


e|---------------------------------------------------------------------------|
B|-----20b-----22b/20-------------15--18--18b----18--17--15------------------|
G|-----------------------------------------------------------17---15---------|
D|---------------------------------------------------------------------------|
A|---------------------------------------------------------------------------|
E|---------------------------------------------------------------------------|

e|---------------------------------------------------------------------------|
B|---------------------------------------------------------------------------|
G|-------14------12----------------------------------------------------------|
D|------------------------15/0-----------------------------------------------|
A|---------------------------------------------------------------------------|
E|---------------------------------------------------------------------------|
Tap to rate this tab
 
# A B C D E F G H I J K L M N O P Q R S T U V W X Y Z