Song name
# A B C D E F G H I J K L M N O P Q R S T U V W X Y Z

Pink Floyd - Remember A Day tab

This is the way I play it, so Floyd Purist this is inaccurate. Also wish to note the slide part isn't here either. 
Oh and as usual the spacing is off(Sorry, Still new to writing tab)!
Chords Used:
E
D6
A
Em
F#m
G
A

Note:
On the A and D chords you can occasionally switch to these chords:
  A* D6*
E-0--3-]
B-3--0-]
G-2--2-]
D-2--0-]
A-0----]
E-0----]

----------------------------------------------------------------------------------------------------------------------------------------------------------------------------
Intro(Kind of mimicking the piano) 
E----0--------] 
B----0--0-----]
G-------1--1--]
D----------2--] Play about 3 times.
A-------------]
E-0-----------] 

E          D6               A                    E
Remember a day before today, a day when you were young.

             D6              A              E (To Em) 
Free to play along with time; evening never comes

(In-between Part):
  Em              F#m                G            A
E----0---------------2--------------------3---------------------]
B-----0------0-0------2------2-2---------3-3----------2---2/3/2-]
G------0------0--------2------2-------------0--------2-2--------]
D--------------------------------------------0------------------]Play  Twice.
A---------2---------------4-----------2-------2---0-------0---0-]second time
E-0---------------2------------------3--------------------------]got to an E

E      D6                     A                      E
Sing a song that can't be sung without the morning's kiss.

                D6             A                E(To Em)
Queen you shall be if you wish. Look for your king

(In-between Part):
  Em              F#m                G            A
E----0---------------2--------------------3---------------------]
B-----0------0-0------2------2-2---------3-3----------2---2/3/2-]
G------0------0--------2------2-------------0--------2-2--------]
D--------------------------------------------0------------------]Play  Twice.
A---------2---------------4-----------2-------2---0-------0---0-]second time
E-0---------------2------------------3--------------------------]just strum the A


A   G        D          Em
Why can't we reach the sun?

A   G        D               (To Em)
Why can't we blow the years away?

(In-between Part):
  Em              F#m                G            A
E----0---------------2--------------------3---------------------]
B-----0------0-0------2------2-2---------3-3----------2---2/3/2-]
G------0------0--------2------2-------------0--------2-2--------]
D--------------------------------------------0------------------]Play  Twice.
A---------2---------------4-----------2-------2---0-------0---0-]second time
E-0---------------2------------------3--------------------------]got to an E

E          D6                   A                 E
Climb your favourite apple tree; try to catch the sun.

               D6                   A                E(To Em)
Hide from your little brother's gun. Dream yourself away

(In-between Part):
  Em              F#m                G            A
E----0---------------2--------------------3---------------------]
B-----0------0-0------2------2-2---------3-3----------2---2/3/2-]
G------0------0--------2------2-------------0--------2-2--------]
D--------------------------------------------0------------------]Play  Twice.
A---------2---------------4-----------2-------2---0-------0---0-]second time
E-0---------------2------------------3--------------------------]just strum the A


A   G        D          Em
Why can't we reach the sun?

A   G        D               (To E)
Why can't we blow the years away?

E(Go Crazy)
Blow away.
Tap to rate this tab
# A B C D E F G H I J K L M N O P Q R S T U V W X Y Z