Song name
# A B C D E F G H I J K L M N O P Q R S T U V W X Y Z

Pink Floyd - Dogs tab

-------------------------------------------------------------------------------
			     Dogs (Solo #1) - Pink Floyd
-------------------------------------------------------------------------------
Tabbed by: Dawson Johannes
E-mail: djohannesw@gmail.com


This is only the first solo, but it still sounds great. I've tested this for hours and this one I promise is 
100% correct. This'll take a little practice, but other than that (haha) enjoy!


E ----/12-13-12-12-10-10------------------------------------------------------------------------------|
B -----------------------10-12-13-x-12-10-------------------------------------------------------------|
G ----------------------------------------12-10-9-7----7h9h10p9p7----7---------7-----10-10/12-10-10---|
D ----------------------------------------------------------------10---10-8--10--x-8------------------|
A ----------------------------------------------------------------------------------------------------|
D ----------------------------------------------------------------------------------------------------|

E ----13-13-12-x-10---13--13-x-12-x-10-x-----------------------------------------------------------------------|
B ---------------------------------------13-x-10-x-------------------------------------------------------------|
G -------------------------------------------------12b14b12-10-9h10p9\7h9-7\6-7-7/9---------------7-x-9-x-11-x-|
D ----------------------------------------------------------------------------------7-xx-9-x-11-x--------------|
A -------------------------------------------------------------------------------------------------------------|
D -------------------------------------------------------------------------------------------------------------|

E ---------------------------------------------13-12-11-10--------------------------------------------|
B ----8-x-10-x-12-x12b13--12-11-----------------------------13-12-11--10------------------------------|
G -------------------------------13-12--10-10----------------------------13-12--10-10b12b10-9---------|
D ----------------------------------------------------------------------------------------------------|
A ----------------------------------------------------------------------------------------------------|
D ----------------------------------------------------------------------------------------------------|


************************************

| /   slide up
| \   slide down
| h   hammer-on
| p   pull-off
| ~   vibrato
| +   harmonic
| x   Mute note
| b   Bend
| pb  Pre-bend
| br  Bend release
| pbr Pre-bend release
| brb Bend release bend

************************************
Tap to rate this tab
 
# A B C D E F G H I J K L M N O P Q R S T U V W X Y Z