Song name
# A B C D E F G H I J K L M N O P Q R S T U V W X Y Z

Pink Floyd - The Fletcher Memorial Home tab

-------------------------------------------------------------------------------
                             The Fletcher Memorial Home-Pink Floyd
-------------------------------------------------------------------------------
Tabbed by:  floyd-pinkerton


Tuning: standard

e|---------------------------------------------------------------------------|
B|------------14b------------------------------------------------------------|
G|----12-----------------------------------2b--------------------------------|
D|--------------------14p12--------------------------------------------------|
A|----------------------------14---------------------------------------------|
E|-------------------------------------------------0\------------------------|

e|----------------------------------------------15---------------------------|
B|-------------14b-----12-----15----15b--15b--------15b----------------------|
G|----12---------------------------------------------------------------------|
D|---------------------------------------------------------------------------|
A|---------------------------------------------------------------------------|
E|---------------------------------------------------------------0\----------|

e|---------------------------------------------------------------------------|
B|---------------------------------------------------------------------------|
G|---------------------------------------------------------------------------|
D|----------5----7-----------5------7--------5---7---7-----------------------|
A|-----7----------------7----------------------------------------------------|
E|-----------------------------------------------------0---------------------|

e|---------------------------------------------------------------------------|
B|---------------------------------------------------------------------------|
G|---14b-----14--------12------12-12--14--12---------------------------------|
D|---------------------------------------------------------------------------|
A|---------------------------------------------------------------------------|
E|---------------------------------------------------------------------------|

e|---------------------------------------------------------------------------|
B|---------------------------------------------------------------------------|
G|---14b---14---12-----12--11--12---------17---20-------13-------------------|
D|---------------------------------------------------------------------------|
A|---------------------------------------------------------------------------|
E|---------------------------------------------------------------------------|

e|---------------------------------------------------------------------------|
B|-------------------------7/8/7---------------------------------------------|
G|---14b----14-----12--------------------------------------------------------|
D|---------------------------------------------------------------------------|
A|---------------------------------------------------------------------------|
E|---------------------------------------------------------------------------|

e|---------------------------------------------------------------------------|
B|---------------------------------------------------------------------------|
G|---------------------------------------------------------------------------|
D|---------------------------------------------------------------------------|
A|---------------------------------------------------------------------------|
E|---------------------------------------------------------------------------|

e|---------------------------------------------------------------------------|
B|---------------------------------------------------------------------------|
G|---------------------------------------------------------------------------|
D|---------------------------------------------------------------------------|
A|---------------------------------------------------------------------------|
E|---------------------------------------------------------------------------|


************************************

| /   slide up
| \   slide down
| h   hammer-on
| p   pull-off
| ~   vibrato
| +   harmonic
| x   Mute note
| b   Bend
| pb  Pre-bend
| br  Bend release
| pbr Pre-bend release
| brb Bend release bend

************************************
Tap to rate this tab
# A B C D E F G H I J K L M N O P Q R S T U V W X Y Z