Guitaretab - guitar tabs
Song name
# A B C D E F G H I J K L M N O P Q R S T U V W X Y Z

Pink Floyd - Fletcher Memorial Home tab

e|-------------------------------------------------------------------------|
B|-------------------------------------------------------------------------|
G|-12-14b--------14brp12---------------------------------------------------|
D|----------------------14(s)-----7b-7b--x\--------------------------------|
A|-------------------------------------------------------------------------|
E|-------------------------------------------------------------------------|

e|-------------------------15----------------------------------------------|
B|----------15p12-15b-15b----15b-------------------------------------------|
G|-12-14b------------------------------------------------------------------|
D|-------------------------------------------------------------------------|
A|-----------------------------------------------------x\------------------|
E|-------------------------------------------------------------------------|
[ Tab from: http://www.guitaretab.com/p/pink-floyd/42577.html ]
   very wide vibrato for this bit:
e|-------------------------------------------------------------------------|
B|-------------------------------------------------------------------------|
G|-------------------------------------------------------------------------|
D|--7s9~~~~~~~------------7--9~~---------7h9p7-----------------x/-x\-------|
A|-9--------------------9---9----------------------------------------------|
E|-------------------------------------------------------------------------|

e|-------------------------------------------------------------------------|
B|-------------------------------------------------------------------------|
G|-12--14--14b--r~~~--12-----------12-h14--14b--r~~~--12-------------------|
D|-------------------------------------------------------------------------|
A|-------------------------------------------------------------------------|
E|-------------------------------------------------------------------------|

                          ************* 
e|-------------------------------------------------------------------------|
B|----------12-15-12-------------------------------------------------------|
G|-14-12-14---------------14b--r~~~--12------------------9brb--------------|
D|-------------------------------------------------------------------------|
A|-------------------------------------------------------------------------|
E|-------------------------------------------------------------------------|
Related for Fletcher Memorial Home tab
Advertisement will be closed in 10 seconds