Song name
# A B C D E F G H I J K L M N O P Q R S T U V W X Y Z

Pink Floyd - Pigs Three Different Ones tab

intro: Pigs 3 different ones
artist: Pink Floyd
transcribed by: CrAzY_DialvlonD@hotmail.com
Here is that bass intro for "pigs 3 diff ones" transcribed for guitar.


e----------------------------------------------------------------------------------------|
b----------------------------------------------------------------------------------------|
g----------------------------------------------------------------------------------------|
d----------------------------------------------------------------------------------------|
a-----------------------------------13-12-10-10h12p10-9----------------------------------|
e---19p17-19--------19p17-19----------------------------10-10/12-------------------------|
            ^^^^^^^^        ^^^^^^^^                            ^^^^^^^^Oink...oink...oink

e-----------------------------------------------------------------------------------------|
b-----------------------------------------------------------------------------------------|
g--------------------------------------------------------------------------9-9--9-9-------|
d--------------------------------------------------------------------------9-9--9-9-------|
a--------------15-----13-12-10-10h12p10-9---------------------10-9---------7-7--7-7-------|
e---19--21p19-------------------------------10-10/12---------------10/12------------------|
      ^^         ^^^^^                              ^^^^^^^^^           ^^^

e-----------------------------------------------------------------------------------------|
b-----------------------------------------------------------------------------------------|
g---------------------------9-9--9-9-----------9-9--9-9-----------------------------------|
d---------------------------9-9--9-9-----------9-9--9-9-----------------------------------|
a---9/10-10-10-12-10--------7-7--7-7-----------7-7--7-7-----------------------------------|
e--------------------10/12------------10-10-10--------------------------------------------|
                                             q          ^Rhyth. if you know it, starts here

 the second time you hear this, the rhyth. comes in a bit earlier (where the oinks are)
enjoy!
Tap to rate this tab
 
# A B C D E F G H I J K L M N O P Q R S T U V W X Y Z