Song name
# A B C D E F G H I J K L M N O P Q R S T U V W X Y Z

Pink Floyd - The Narrow Way Part 2 tab

Pink Floyd
The Narrow Way(Part two)
Album:Ummagumma

I believe this is accurate. Just listen to the song for the timing.


e[----------------------------]
b[----------------------------] 
g[----------------------------] play 3 times
d[----------------------------]
a[------9--10--9--7/--1--2----]
E[-0--7---------------------1-]


Then play:
e[---------------------------]
b[---------------------------]
g[---------------------------]
d[---------------------------]
a[-/7--3--5------------------]
E[-----------6--8--3--5/--1--]
Tap to rate this tab
# A B C D E F G H I J K L M N O P Q R S T U V W X Y Z