Song name
# A B C D E F G H I J K L M N O P Q R S T U V W X Y Z

Pink Floyd - In The Flesh Live tab

Title: In the Flesh (Live)
Artist: Pink FLoyd
Tabb BY: Daniel "Arnni" Greenwood
Comments: This Song rocks, its a great opener for the amazing concept album
the wall, whihc you can guess is my fav album :>
I Tabb this live with the help of my guitar teacher to work out certain bits
There alot of bends(b) in this songs and releases(r) in the first bit, however the main riff bit
before the vocals is actully slide's not bends.
tuneing: Concert Pitch - E ,A ,D , G , B , E
Enjoy please rate.


Intro
e|-----------------------------------------------------------|
b|-----------------------------------------8-----3-----5-----|
g|-----------------------------------------7-----2-----4-----|
d|-2-------4-------5-------7-----9--10~~~--------------------|
a|-2-------4-------5-------7-----9--10~~~--------------------|
E|-0-------2-------3-------5-----7--8~~~~--------------------|

Lead 1

e|--------0--------0----------------------------------------|
b|----------3---------3-------------------------------------|
g|-2b(4)------2b(4)-----2B(4)-2-0---------------------------|
d|----------------------------------2-0---------------------|
a|--------------------------------------2-1-0------2~~~~~---|
E|---------------------------------------------3-2----------|


e|-----------------------------------------------------------|
b|-----------------------------------------8-----3-----5-----|
g|-----------------------------------------7-----2-----4-----|
d|-2-------4-------5-------7-----9--10~~~--------------------|
a|-2-------4-------5-------7-----9--10~~~--------------------|
E|-0-------2-------3-------5-----7--8~~~~--------------------|

Lead 2

e|-12~-------------------------------------------------------|
b|-----12~--15b(17)--15b(17)r15-12-15b(17--------------------|
g|-----------------------------------------------------------|
d|-----------------------------------------------------------|
a|-----------------------------------------------------------|
E|-----------------------------------------------------------|

Guitar 1
   D       E       F       E       D       E       F       G
e|-2-------4-------5-------4-------2-------4-------5-------7-|
b|-3-------5-------6-------5-------3-------5-------6-------8-|
g|-2-------4-------5-------4-------2-------4-------5-------7-|
d|-0-------0-------0-------0-------0-------0-------0-------0-|
a|-----------------------------------------------------------|
E|-----------------------------------------------------------|

Guitar 2
   D       E       F       E       D       E       F       G
e|-----------------------------------------------------------|
b|-----------------------------------------------------------|
g|-7------9--------10-----9-------7--------9------10------12-|
d|-7------9--------10-----9-------7--------9------10------12-|
a|-5------7--------8------7-------5--------7------8-------10-|
E|-----------------------------------------------------------|

main riff

e|-------------------------------------------------------------|
b|-------------------------------------------------------------|
g|-2--4/6--4--2--------6/7--4--4-------------------------------|
d|-2--4/6--4--2--6--4--6/7--4--4-------------------------------|
a|-0--2/4--2--0--6--4--4/5--6--2-------------------------------|
E|---------------4--2------------------------------------------| x2

e|-------------------------------------------------------------|
b|-------------------------------------------------------------|
g|-2--4/6--4--2-3-4-4/7--4--4-5-6-6/9-7-6----------------------|
d|-2--4/6--4--2-3-4-4/7--4--4-5-6-6/9-7-6--2-2-2-2-2-2-2-2-2---|
a|-0--2/4--2--0-1-2-2/5--6--2-3-4-4/7-5-4--2-2-2-2-2-2-2-2-2---|
E|-----------------------------------------0-0-0-0-0-0-0-0-0---|

VERSE 1
	
e|------------------------------------2-----------2-----|
b|-------2-----------2--------------3---3-------3---3---|
g|-----2---2-------2---2----------2-------2---2-------2-|
d|---2-------2---2-------2-----0-----------0------------|
a|-0-----------0----------------------------------------|
E|------------------------------------------------------|
 So you thought you might like to, Go to the show

e|------------------------------------2-----------2-----|
b|-------2-----------2--------------3---3-------3---3---|
g|-----2---2-------2---2----------2-------2---2-------2-|
d|---2-------2---2-------2-----0-----------0------------|
a|-0-----------0----------------------------------------|
E|------------------------------------------------------|
 To feel the warm thrill of confusion, That space cadet glow.

e|-------------------------------------------------|
b|-------2-----------2-----------3-----------3-----|
g|-----2---2-------2---2-------4---4-------4---4---|
d|---2-------2---2-------2---4-------4---4-------4-|
a|-0-----------0-----------2-----------2-----------|
E|-------------------------------------------------|

  Tell me is something eluding you, sunshine?  Is this not what you expected to see? 

e|-------------------------------0-----------0-----|
b|-------5-----------5-------------0-----------0---|
g|-----6---6-------6---6-------1-----1-----1-----1-|
d|---6-------6---6-------6---2-----------2---------|
a|-4-----------4-----------------------------------|
E|-------------------------0-----------0-----------|

If you wanna find out what's behind these cold eyes,
You'll just have to blow your way through this disguise



main riff

e|-------------------------------------------------------------|
b|-------------------------------------------------------------|
g|-2--4/6--4--2--------6/7--4--4-------------------------------|
d|-2--4/6--4--2--6--4--6/7--4--4-------------------------------|
a|-0--2/4--2--0--6--4--4/5--6--2-------------------------------|
E|---------------4--2------------------------------------------| x2

e|-------------------------------------------------------------|
b|-------------------------------------------------------------|
g|-2--4/6--4--2-3-4-4/7--4--4-5-6-6/9-7-6----------------------|
d|-2--4/6--4--2-3-4-4/7--4--4-5-6-6/9-7-6--2-2-2-2-2-2-2-2-2---|
a|-0--2/4--2--0-1-2-2/5--6--2-3-4-4/7-5-4--2-2-2-2-2-2-2-2-2---|
E|-----------------------------------------0-0-0-0-0-0-0-0-0---|



Finish on the A chord
Tap to rate this tab
# A B C D E F G H I J K L M N O P Q R S T U V W X Y Z