Song name
# A B C D E F G H I J K L M N O P Q R S T U V W X Y Z

Pink Floyd - Terminal Forst tab

Author/Artist: Pink Floyd
Title: Terminal Frost
Album: a momentary lapse of reason
Transcribed by: pinkfloydfan1
Email: doggydj2004@aol.com

no tab anywere else so i thought id give it a go gimme feedback please

--------------------------|
-----8-10-10vvv-----------|
-9-9-------------9vv------|
--------------------------|
--------------------------|
--------------------------|


--------------------------|
--------------------------|
--10b12r10b12vv--7h9b11r9-|
--------------------------|
--------------------------|
--------------------------|


--------------------|
-----7h8-7---7\5vvv-|
-7h9-------7--------|
--------------------|
--------------------|
--------------------|


-9p10-10p7h10p7h10p9vv--|
------------------------|
------------------------|
------------------------|
------------------------|
------------------------|


--------------------|
-11b13r11-----8p7---|
---------12-9-----7-|
--------------------|
--------------------|
--------------------|


------------------|
-15p13-10p8-6\3vv-|
------------------|
------------------|
------------------|
------------------|
  [after organ solo]

--------|
---8p7--|
-9----7-|
--------|
--------|
--------|
Tap to rate this tab
 
# A B C D E F G H I J K L M N O P Q R S T U V W X Y Z