Song name
# A B C D E F G H I J K L M N O P Q R S T U V W X Y Z

Pink Floyd - When Youre In tab

Help us improve GuitareTab! Take a short survey!
WHEN YOU'RE IN (Waters, Wright, Mason, Gilmour)

alot easier with a capo on the 5th fret but anyways:

e-------------------------------------------------------|
b-------------------------------------------------------|
g-----------------------------------x----7-5------------|   repeat twice
d--7-7--5p7-7-7---7-7--5p7-7-7------x----7-5------------|
a--7-7--7---7-7---7-7--7---7-7--7-----------------------|
e--5-5--5---5-5---5-5--5---5-5----5---------------------|

e--------------------------------------------------------|
b--------------------------------------------------------|
g--7-7--7p5-------7-7--7p5-----------------7-5-----------|
d--7-7--7p5--7-7--7-7--7p5--7-7--x-x--5p7--7-5-----------|
a------------7-7------------7-7--x-x--5p7----------------|
e--------------------------------------------------------|

thats pretty much it, just follow along with the song. enjoy.
Related for When Youre In tab