Song name
# A B C D E F G H I J K L M N O P Q R S T U V W X Y Z

Pink Gorillas - Spiral Staircase To Heaven Laundry Chute To Hell tab

(Intro/PreChorus)
D|------------------------------------------------|
A|------------------------------------------------|
F|------------------------------------------------|
C|------------------------------------------------| X2
G|---------0---------------------0--5p3-----------|  
C|-0-0-3h5----0-0-3h5p3-0-0-3h5--------7p5-3h5p3-0|

[verse]
D|---------------------------------------------------------------------------------|
A|---------------------------------------------------------------------------------|
F|---------------------------------------------------------------------------------|X2
C|---------------------------------------------------------------------------------|
G|-0----------33-0-55-0-0----------66-0-55-0-0----------33-0-55-6-666-5-555--------|  
C|-0-00-00-00-33-0-55-0-0-00-00-00-66-0-55-0-0-00-00-00-33-0-55-6-666-5-555-3h5p3-0| 

[Insert PreChorus or Intro x2]
then
[Chorus]
D|--------------------|
A|--------------------|
F|-14-12--------------|X4 Figure out the strumming
C|--x--x--------------|
G|-12-10--8888-7777---|  
C|--------8888-7777---|

PreChorus again
Then Verse
then PreChorus
Then Chorus 

THEN
SICK BREAKDOWN YOOO

D|-----------------------|
A|------5------5---5-55--|
F|------9------9---9-99--| X2  then 
C|-----------------------|
G|-0-00---00-0---00------|          
C|-0-00---00-0---00------|   

D|---------------------------|
A|------5--------------------|
F|------9--------------------|  then Back to vvvv
C|---------------------------|
G|-0-00---00---------5p0-3p0-|  
C|-0-00---00-3p0-5p0---------|
            
D|-----------------------|
A|------5------5---5-55--|
F|------9------9---9-99--| X2  then 
C|-----------------------|
G|-0-00---00-0---00------|  
C|-0-00---00-0---00------|
Tap to rate this tab
# A B C D E F G H I J K L M N O P Q R S T U V W X Y Z