Guitaretab - guitar tabs
Song name
# A B C D E F G H I J K L M N O P Q R S T U V W X Y Z

Pink Martini - Hey Eugene tab

  www.pinkmartini.com  
 -----------------------------------------------------------
    
     PINK MARTINI - HEY EUGENE! (Forbes) From Hey Eugene! album.
                    Released on May 14th 2007

     -----------------------------------------------------------

     Tabbed by:PJVillanueva






   Hey Eugene
   Do you remember me
   Iím that chick you danced with two times
   Through the Rufus album Friday night at that party
   I never knew A
   Where your skinhead friend passed out
   For several hours on the bathroom floor
   And you told me
   You weren't that drunk
   And that I was your favourite Salsa dancer
   You had ever come across in New York City

   Eugene
   Eugene
   Eugene
   I said hello, Eugene
   Are you there, Eugene

   Hey Eugene
   Then we kissed
   Once we lobbed your friend into the elevator
   I  went to write my number on a soggy paper towel
   And the car went down
   And when we were finished making out
   We noticed that your skinhead friend was gone
   Long gone
   And you looked into my bloodshot eyes
   And said "is it too soon if I call you Sunday"

   Eugene
   Eugene
   Eugene
   I said hello, Eugene
   Are you there, Eugene

   I said hello (hello), Eugene (Eugene)
   Eugene (Eugene)
   Eugene (oh yeah)

   I said hello (hello), Eugene
   Are you there, Eugene (tell me are you there)

   I said hello (hello), Eugene (Eugene)
   Eugene (Eugene)
   Eugene (tell me oh)

   I said hello (hello), Eugene (Eugene)
   Does any of this ring a bell Eugene



     4/4
                                   
   
     A                               B7
   e|------- ------- ------- -------|------- ------- ------- -------|
   B|2------------------------------|4------------------------------|
   G|2------------------------------|4------------------------------|
   D|2------------------------------|4------------------------------|
   A|0------------------------------|0------------------------------|
   E|-------------------------------|-------------------------------|

   e|5------ ------- ------- -------|2------ ------- ------- -------|
   B|5------------------------------|4------------------------------|
   G|6------------------------------|4------------------------------|
   D|-------------------------------|-------------------------------|
   A|-------------------------------|-------------------------------|
   E|-------------------------------|-------------------------------|

   e|------- ------- ------- -------|------- ------- ------- -------|
   B|-------------------------------|-------------------------------|
   G|--------------2---2-----2-~----|--------------2---2-----2-~----|
   D|------------4-------4----------|--------------------4----------|
   A|-------------------------------|-------------------------------|
   E|-------------------------------|-------------------------------|



     D                               A
   e|------- ------- ------- -------|------- ------- ------- -------|
   B|3------------------------------|2------------------------------|
   G|2------------------------------|2------------------------------|
   D|4------------------------------|2------------------------------|
   A|0------------------------------|0------------------------------|
   E|-------------------------------|-------------------------------|

   e|5------ ------- ------- -------|0------ ------- ------- -------|
   B|3------------------------------|2------------------------------|
   G|2------------------------------|2------------------------------|
   D|-------------------------------|-------------------------------|
   A|-------------------------------|-------------------------------|
   E|-------------------------------|-------------------------------|

   e|------- ------- ------- -------|------- ------- ------- ----5-~|
   B|-------------------------------|-------------------------------|
   G|--------------2---2-----2-~----|--------------2---2-----6------|
   D|--------------------4----------|--------------------4-2--------|
   A|-------------------------------|-------------------------------|
   E|-------------------------------|-------------------------------|



     00:10
     A                               B7       
   e|5------ ------- ------- -------|------- ------- ------- -------|
   B|2------------------------------|4------------------------------|
   G|2------------------------------|4------------------------------|
   D|2------------------------------|4------------------------------|
   A|0------------------------------|0------------------------------|
   E|-------------------------------|-------------------------------|
     Pa  pa  pa    pa  pa    pa      Pa  pa  pa    pa  pa    pa
   e|------- ------- ------- -------|------- ------- ------- -------|
   B|-------------------------------|-------------------------------|
   G|-------------------------------|--------------2---2-----2-~----|
   D|-------------------------------|-------------------------------|
   A|-------------------------------|-------------------------------|
   E|-------------------------------|-------------------------------|



     D                               A
   e|------- ------- ------- -------|------- ------- ------- -------|
   B|3------------------------------|2------------------------------|
   G|2------------------------------|2------------------------------|
   D|4------------------------------|2------------------------------|
   A|0------------------------------|0------------------------------|
   E|-------------------------------|-------------------------------|
     Pa  pa  pa    pa  pa    pa        
   e|------- ------- ------- -------|------- ------- ------- -------|
   B|-------------------------------|-------------------------------|
   G|--------------2---2-----2------|--------------2---2-----2------|
   D|--------------------4----------|--------------------4----------|
   A|-------------------------------|-------------------------------|
   E|-------------------------------|-------------------------------|
                                                                 Hey
                                                                   Eugene
     00:20
                                     B7
   e|------- ------- ------- -------|------- ------- ------- -------|
   B|2------------------------------|4------------------------------|
   G|2------------------------------|4------------------------------|
   D|2------------------------------|4------------------------------|
   A|0------------------------------|0------------------------------|
   E|-------------------------------|-------------------------------|
                       Do  remember                            Iím  
                         you       me                            that
   e|------- ------- ------- -------|------- ------- ------- -------|
   B|-------------------------------|-------------------------------|
   G|--------------2---2-----2-~----|--------------2---2-----2------|
   D|-------------------------------|--------------------4----------|
   A|-------------------------------|-------------------------------|
   E|-------------------------------|-------------------------------|



     D
   e|------- ------- ------- -------|------- ------- ------- -------|
   B|3------------------------------|-------------------------------|
   G|2------------------------------|-------------------------------|
   D|4------------------------------|-------------------------------|
   A|0------------------------------|-------------------------------|
   E|-------------------------------|-------------------------------|
     chick danced  two times through Rufus album Friday  night at  party 
         you     with            the                             that
   e|------- ------- ------- -------|------- ------- ------- -------|
   B|-------------------------------|-------------------------------|
   G|--------------2---2-----2------|--------------2---2-----2------|
   D|--------------------4----------|--------------------4-------4--|
   A|-------------------------------|-------------------------------|
   E|-------------------------------|-------------------------------|



     00:30
            I never knew A
            Where your skinhead friend passed out
            For several hours on the bathroom floor

                    00:40
            And you told me
            You weren't that drunk
            And that I was your favourite Salsa dancer
            You had ever come across in New York 
     

     00:50

   e|------- ------- ------- -------|------- ------- ------- -------|
   B|2------------------------------|4------------------------------|
   G|2------------------------------|4------------------------------|
   D|2------------------------------|4------------------------------|
   A|0------------------------------|0------------------------------|
   E|-------------------------------|-------------------------------|
         City                Eugene                          Eugene
   e|------- ------- ------- -------|------- ------- ------- -------|
   B|-------------------------------|-------------------------------|
   G|--------------2---2-----2------|--------------2---2-----2------|
   D|--------------------4-------4--|--------------------4----------|
   A|-------------------------------|-------------------------------|
   E|-------------------------------|-------------------------------|

   e|----5-- --5---- 5------ -------|------- ------- ------- -------|
   B|-------------------------------|----7-----7-----7--------------|
   G|----6-----6-----6--------------|----8-----8-----8--------------|
   D|--------------7----------------|--------------7----------------|    
   A|-------------------------------|-------------------------------|
   E|-------------------------------|-------------------------------|



[ Tab from: http://www.guitaretab.com/p/pink-martini/90776.html ]
   e|------- ------- ------- -------|------- ------- ------- -------|
   B|3------------------------------|-------------------------------|
   G|2------------------------------|-------------------------------|
   D|4------------------------------|-------------------------------|
   A|0------------------------------|-------------------------------|
   E|-------------------------------|-------------------------------|
                             Eugene                  I   said
                                                             hello
   e|------- ------- ------- -------|------- 5/7\5-- ------- -------|
   B|-------------------------------|--------5/7\5---5/7\5----------|
   G|--------------2---2-----2------|2---------------4/6\4----------|
   D|--------------------4----------|-------------------------------|
   A|-------------------------------|-------------------------------|
   E|-------------------------------|-------------------------------|

   e|5------ ------- ------- -------|5------ ------- ------- -------|
   B|7------------------------------|5------------------------------|
   G|7------------------------------|6------------------------------|
   D|-------------------------------|-------------------------------|
   A|-------------------------------|-------------------------------|
   E|-------------------------------|-------------------------------|    


     01:00

   e|------- ------- ------- -------|------- ------- ------- -------|
   B|2------------------------------|4------------------------------|
   G|2------------------------------|4------------------------------|
   D|2------------------------------|4------------------------------|
   A|0------------------------------|0------------------------------|
   E|-------------------------------|-------------------------------|
                             Eugene                      are you there,    
   e|------- ------- ------- -------|------- ------- ------- -------|
   B|-------------------------------|-------------------------------|
   G|2-~-----------2---2-----2------|--------------2---2-----2------|
   D|----------------------------4--|--------------------4-------4--|
   A|-------------------------------|-------------------------------|
   E|-------------------------------|-------------------------------|

   e|----5-- --5---- 5------ -------|------- ------- ------- -------|
   B|-------------------------------|----7-----7-----7--------------|
   G|----6-----6-----6--------------|----8-----8-----8--------------|
   D|-------------------------------|--------------7----------------|   
   A|-------------------------------|-------------------------------|
   E|-------------------------------|-------------------------------|




   e|------- ------- ------- -------|------- ------- ------- -------|
   B|3------------------------------|-------------------------------|
   G|2------------------------------|-------------------------------|
   D|4------------------------------|-------------------------------|
   A|0------------------------------|-------------------------------|
   E|-------------------------------|-------------------------------|
                             Eugene                              Hey
                                                                   Eugene  
   e|------- ------- ------- -------|------- ------- ------- -------|
   B|-------------------------------|-------------------------------|
   G|--------------2---2-----2------|--------------2---2-----2/4\2--|
   D|--------------------4-------4--|----------------------4--------|
   A|-------------------------------|-------------------------------|
   E|-------------------------------|-------------------------------|
     <
   e|5------ ------- ------- -------|5------ ------- ------- -------|
   B|7------------------------------|5------------------------------|
   G|7------------------------------|6------------------------------|
   D|-------------------------------|-------------------------------|
   A|-------------------------------|-------------------------------|
   E|-------------------------------|-------------------------------|  




     01:10
            Then we kissed
            Once we lobbed your friend into the elevator
            I  went to write my number on a soggy paper towel
            And the car went down
            And when we were finished making out
            We noticed that your skinhead friend was 

     01:30        
            gone
            Long gone
            And you looked into my bloodshot eyes
            And said "is it too soon if I call you 

     01:40
     Sunday"
            Eugene
            Eugene
            Eugene
            I said hello, Eugene
            Are you there,

     01:55

   e|------- ------- ------- -------|------- ------- ------- -------|
   B|3------------------------------|2------------------------------|
   G|2------------------------------|2------------------------------|
   D|4------------------------------|2------------------------------|
   A|0------------------------------|0------------------------------|
   E|-------------------------------|-------------------------------|
                             Eugene
   e|------- ------- ------- -------|------- 5/7\5-- ------- -------|
   B|-------------------------------|--------5/7\5---5/7\5----------|
   G|--------------2---2-----2-----2|----------------4/6\4---2/4\2--|
   D|--------------------4-------4--|------------------------2/4\2--|
   A|-------------------------------|-------------------------------|
   E|-------------------------------|-------------------------------|


     02:00

   e|------- ------- ------- -------|------- ------- ------- -------|
   B|2------------------------------|4------------------------------|
   G|2------------------------------|4------------------------------|
   D|2------------------------------|4------------------------------|
   A|0------------------------------|0------------------------------|
   E|-------------------------------|-------------------------------|

   e|------- ------- ------- -------|------- ------- ------- -------|
   B|-------------------------------|-------------------------------|
   G|--------------2---2-----2------|--------------2---2-----2------|
   D|------------4-------4----------|--------------------4-------4--|
   A|-------------------------------|-------------------------------|
   E|-------------------------------|-------------------------------|

   e|------- ------- ------- -------|------- ------- ------- -------|
   B|------------7------10-------9--|----7--------------------------|
   G|6---9--------------------------|------------6-------4-------2--|
   D|------------4-------7-------6--|----4--------------------------|
   A|4---7--------------------------|------------4-------2-------0--|
   E|-------------------------------|-------------------------------|




   e|------- ------- ------- -------|------- ------- ------- -------|
   B|3------------------------------|2------------------------------|
   G|2------------------------------|2------------------------------|
   D|4------------------------------|2------------------------------|
   A|0------------------------------|0------------------------------|
   E|-------------------------------|-------------------------------|

   e|------- ------- ------- -------|------- ------- ------- ----0--|
   B|-------------------------------|------------------------0H2----|
   G|--------------2---2-----2------|--------------2---2------------|
   D|--------------------4-------4--|2-------------------4----------|
   A|-------------------------------|-------------------------------|
   E|-------------------------------|-------------------------------|

   e|------- ------- ------- -------|------- ------- ------- -------|
   B|-------------------------------|-------------------------------|
   G|--------------------4---2---6--|-------------------------------|
   D|-------------------------------|-------------------------------|
   A|--------------------2---0---4--|-------------------------------|
   E|-------------------------------|-------------------------------|


     02:10

   e|------- ------- ------- -------|------- ------- ------- -------|
   B|2------------------------------|4------------------------------|
   G|2------------------------------|4------------------------------|
   D|2------------------------------|4------------------------------|
   A|0------------------------------|0------------------------------|
   E|-------------------------------|-------------------------------|

   e|------- ------- ------- -------|------- ------- ------- -------|
   B|-------------------------------|-------------------------------|
   G|--------------2---2-----2------|--------------2---2-----2------|
   D|------------4-------4----------|--------------------4-------4--|
   A|-------------------------------|-------------------------------|
   E|-------------------------------|-------------------------------|

   e|------- ------- ------- -------|------- ------- ------- -------|
   B|------------7------10-------9--|----7--------------------------|
   G|6---9--------------------------|------------6-------4-------2--|
   D|------------4-------7-------6--|----4--------------------------|
   A|4---7--------------------------|------------4-------2-------0--|
   E|-------------------------------|-------------------------------|




   e|------- ------- ------- -------|------- ------- ------- -------|
   B|3------------------------------|2------------------------------|
   G|2------------------------------|2------------------------------|
   D|4------------------------------|2------------------------------|
   A|0------------------------------|0------------------------------|
   E|-------------------------------|-------------------------------|
                                                     I  said hello
   e|------- ------- ------- -------|------- ------- ------- -------|
   B|-------------------------------|-------------------------------|
   G|--------------2---2-----2------|--------------2---2-----2------|
   D|--------------------4-------4--|--------------------4----------|
   A|-------------------------------|-------------------------------|
   E|-------------------------------|-------------------------------|

   e|------- ------- ------- -------|------- ------- ------- -------|
   B|-------------------------------|-------------------------------|
   G|--------------------4---2---2--|-------------------------------|
   D|-------------------------------|-------------------------------|
   A|--------------------2---0---0--|-------------------------------|
   E|-------------------------------|-------------------------------|



     02:20

           (Hello), Eugene (Eugene)
            Eugene (Eugene)
            Eugene (oh yeah)

            I said hello (hello), Eugene
            Are you there, Eugene (Tell me are you there)

            I said hello (hello), Eugene (Eugene)
            Eugene (Eugene)
            Eugene (Tell me oh)

            I said hello (Hello), Eugene (Eugene)
            Does any of this ring a bell Eugene?








              <  Crescendo
              B  Bend
              R  Release
              /  Slide up
              \  Slide down
              H  Hammer-on
              P  Pull-off
              ~  Vibrato
              +  Harmonic
              x  Mute note
              .  Play note like a dot in standard notation
              ^  Ties two notes together
              (. Pause



Related for Hey Eugene tab